• Song:

    Large Pink Instruments

  • Artist:

    The Honorary Title

Large Pink Instruments Tab by The Honorary Title


This tab sounds pretty good to me, but if you find any errors please let me know:
itwaslike_music@yahoo.com 

It's pretty simple if you know your chords. There are 6 progressions, some are only
slightly different from others. For timing you'll have to listen to the song (it's
available for download right now, but I don't know how long it will be up:
http://images.bestbuy.com/BestBuy_US/en_US/images/musicmoviegame/music/richmedia/koufaxlargepink.mp3).

[1]
E|-0--2--2--2--0-
B|-2--2--3--3--0-
G|-2--2--4--2--1-
D|-2--4--4--0--2-
A|-0--4--2--0--2-
E|-X--2--2--X--0-

[2]
E|-0--4--2--2--0-
B|-2--5--2--3--0-
G|-2--6--2--2--1-
D|-2--6--4--0--2-
A|-0--4--4--0--2-
E|-X--4--2--X--0-

[3]
E|-4--2-------
B|-5--3-------
G|-6--2-------
D|-6--0-------
A|-4--0--(x3)-
E|-4--X-------

[4]
E|-2--2--2--0-------
B|-2--3--2--0-------
G|-2--4--2--1-------
D|-4--4--4--2-------
A|-4--2--4--2--(x2)-
E|-2--2--2--0-------

[5]
E|-2--2--0---------0--0--0-
B|-3--2--0---------0--2--3-
B|-4--2--1---------1--1--1-
D|-4--4--2---------2--2--2-
A|-2--4--2--(x4)---2--2--2-
E|-2--2--0---------0--0--0-

[6]
E|-0--0--2--2--0-
B|-2--0--2--3--0-
G|-2--1--2--2--1-
D|-2--2--4--0--2-
A|-0--2--4--0--2-
E|-X--0--2--X--0-


They go in this order:
1
2
1
2
1
1
1
3
4
1
1
1
3
5
6
6
1
1
3
5
6
6
6
6
end on A [02220X]

enjoy!!!
Show more