• Song:

    Mercedes Baby

  • Artist:

    The House Of Heroes

Mercedes Baby Tab by The House Of Heroes


Title: Mercedes Baby
Artist: House of Heroes
Album: Say No More
tabbed by: hellomcfly417
--------------------------

Drop-D Tuning [D A D G B E]

* = palm mute
/ or \ = slide up/down
~ = hold/let ring


Intro

(Listen for timing)
e|-----------------------------------------------------|
B|-----------------------------------------------7-----|
G|--12-------------12-------------12----------767-767--|
D|---x-[x12]-4540~--x-[x12]-4540~--x-[x12]-999---------|
A|--10-------4540~-10-------4540~-10-------999---------|
D|-----------4540~----------4540~----------999---------|

(cont.)
e|----------------------------------5-------|
B|-------------------7--------7-5-7---7-5-7-|
G|-----12---------767-767-------------------|
D|--0~--x-[x8]-999---------0~---------------|
A|--0~-10------999---------0~---------------|
D|--0~---------999---------0~---------------|



Verse 1 (palm mute, except for first chord)
e|------------------------------------|
B|------------------------------------|
G|-5--------4-------------------------|   
D|-5-[x16]--4-[x16]--5--------7-------| (x2) 
A|-7--------2--------5-[x16]--7-[x16]-|
D|-------------------5--------7-------|
    ******** ******** ******** *******



Chorus
e|------------------------------------------------------------------------|
B|------------------------------------------------------------------------|
G|------------------------------------------------------77777777----------|
D|-7/9999999999999999-7777777777777777-5555555555555555-77777777-555555/9-|
A|-7/9999999999999999-7777777777777777-5555555555555555-55555555-555555/9-|
D|-7/9999999999999999-7777777777777777-5555555555555555----------555555/9-|

e|-----------------------------------------------------------------------|
B|-----------------------------------------------------------------------|
G|----------------------------------------------------77777777-----------|
D|-9999999999999999-7777777777777777-5555555555555555-77777777-555555-0~-|
A|-9999999999999999-7777777777777777-5555555555555555-55555555-555555-0~-|
D|-9999999999999999-7777777777777777-5555555555555555----------555555-0~-|

Fill
e|-------5--------|
B|-7-5-7---7-5-7--|
G|----------------|
D|----------------|
A|----------------|
D|----------------|



Verse 2
e|----------------------------------------------------------------------|
B|---------------75----------------75----------------75-----------------|
G|-7777777777777---7-----------------7-----------------7----------------|
D|-7777777777777-----9999999999999-----5555555555555-----77777777777777-|(x2)
A|-5555555555555-----9999999999999-----5555555555555-----77777777777777-|
D|-------------------9999999999999-----5555555555555-----77777777777777-|
    ************      ************      ************      *************


Chorus 2 
e|------------------------------------------------------------------------|
B|------------------------------------------------------------------------|
G|------------------------------------------------------77777777----------|
D|-7/9999999999999999-7777777777777777-5555555555555555-77777777-555555/9-|
A|-7/9999999999999999-7777777777777777-5555555555555555-55555555-555555/9-|
D|-7/9999999999999999-7777777777777777-5555555555555555----------555555/9-|

e|----------------------------------------------------------------------|
B|----------------------------------------------------------------------|
G|----------------------------------------------------77777777----------|
D|-9999999999999999-7777777777777777-5555555555555555-77777777-5555550~-|
A|-9999999999999999-7777777777777777-5555555555555555-55555555-5555550~-|
D|-9999999999999999-7777777777777777-5555555555555555----------5555550~-|

Fill 2
e|--------------------|
B|--7777777777777777--|
G|--7777777777777777--|
D|--xxxxxxxxxxxxxxxx--|
A|--5555555555555555--|
D|--------------------|

   

Interlude
e|---------------------------|
B|---------------------------|
G|---------------------------|
D|-0~~----5~~----9~~----7~~--|
A|-0~~----5~~----9~~----7~~--|
D|-0~~----5~~----9~~----7~~--|

Bridge
e|-----------------------------------------------------------|
B|-----------------------------------------------------------|
G|-9-111111111111--9-9-9-9-9-99--7-7-7-7-7-77----------------|
D|-7/9-9-9-9-9-99-\7-7-7-7-7-77-\5-5-5-5-5-55-0-0-0-0-0-00-0-|(x2)
A|-7/9-9-9-9-9-99-\7-7-7-7-7-77-\5-5-5-5-5-55-0-0-0-0-0-00-0-|
D|-7/9-9-9-9-9-99-\7-7-7-7-7-77-\5-5-5-5-5-55-0-0-0-0-0-00-0-|

e|---------------------|
B|---------------------|
G|---------------------| 
D|-(7)--(7)--(7)--(7/--| (Harmonics)
A|-(7)--(7)--(7)--(7/--|
D|-(7)--(7)--(7)--(7/--|


Chorus 3
e|------------------------------------------------------------------------|
B|------------------------------------------------------------------------|
G|------------------------------------------------------77777777----------|
D|-7/9999999999999999-7777777777777777-5555555555555555-77777777-555555/9-|(x3)
A|-7/9999999999999999-7777777777777777-5555555555555555-55555555-555555/9-|
D|-7/9999999999999999-7777777777777777-5555555555555555----------555555/9-|

e|----------------------------------------------------------------------|
B|----------------------------------------------------------------------|
G|----------------------------------------------------77777777----------|
D|-9999999999999999-7777777777777777-5555555555555555-77777777-5555550~-|
A|-9999999999999999-7777777777777777-5555555555555555-55555555-5555550~-|
D|-9999999999999999-7777777777777777-5555555555555555----------5555550~-|


Outro
e|------------------------------------------|
B|------------------------------------------|
G|------------------------------------------|
D|-------------------------------0-0-0-0-0--|
A|-------------------------------0-0-0-0-0--|
D|-12-4-12-5-12-7-12-9-12121212--0-0-0-0-0--|

   ^^(12, not 1 then 2)


Try listening to the song a few times to get the feel and the changes. Listen to House of Heroes, they rock!
Show more