sponsored links
-------------------------------------------------------------------------------
                             ECHO - The Hush Sound
-------------------------------------------------------------------------------
Tabbed by:azimuth457
Email:azimuth457@gmail.com

Tuning: Standard

Intro/Verse(fingerpicked):
e|--2-----0---------0----0---------|
B|----2------2---2----------0---2--|
G|-----2-------2-------1------2----|
D|--4-----2-----2---2---2------2---|
A|-----------0--------------0------|
E|---------------------------------|

Chorus: 

E 

                
Show more
sponsored links
sponsored links