Fliss Can Dance At The Disco Tab by The Illuminati


-------------------------------------------------------------------------------
		 FLISS CAN DANCE AT THE DISCO - The Illuminati
-------------------------------------------------------------------------------
Tabbed by: Jeff Tang
Email: jeff043@gmail.com

Tuning: Standard (E A D G B E)

I tabbed this song by EAR, so there may be a few mistakes (or a lot lol).

UPDATE: The intro has been changed to a more accurate version (with help from a
        friend).

UPDATE 2 (05/08/06): Once again the intro has been updated to an EVEN more
                     accurate version. I'm pretty sure it's 100% correct this
                     time. Also I've updated a few small parts in a few other
                     areas.

Intro (x2)
e|---------------------------------------------------------------------------|
B|---------------------------------------------------------------------------|
G|-----------7---7------------9---8------------7---7-------------------------|
D|---7---7-----------5---5-------------7---7-----------5---5---5---6---------|
A|---------5---5------------7---6------------5---5---------------------------|
E|-5---5-----------3---3-------------5---5-----------3---3---3---4-----------|

Main Part 1 (x2)
e|---------------------------------------------------------------------------|
B|---------------------------------------------------------------------------|
G|---------------------------------------9---8-------------------------------|
D|-7-x-x-7-x-x-7-x-x-7-x-x-7-x-x-7-x-x---------------------------------------|
A|-7-x-x-7-x-x-7-x-x-7-x-x-7-x-x-7-x-x-7---6---------------------------------|
E|-5-x-x-5-x-x-5-x-x-5-x-x-5-x-x-5-x-x---------------------------------------|

e|---------------------------------------------------------------------------|
B|---------------------------------------------------------------------------|
G|---------------------------------------------------------------------------|
D|-7-x-x-7-x-x-7-x-x-7-x-x-7-x-x-7-x-x---5---6-------------------------------|
A|-7-x-x-7-x-x-7-x-x-7-x-x-7-x-x-7-x-x---------------------------------------|
E|-5-x-x-5-x-x-5-x-x-5-x-x-5-x-x-5-x-x-3---4---------------------------------|

Main Part 2 (x2)
e|---------------------------------------------------------------------------|
B|---------------------------------------------------------------------------|
G|---------------------------------------9---8-------------------------------|
D|-7-x-x-7-x-x-9-x-x-9-x-x-5-x-x-5-x-x---------------------------------------|
A|-7-x-x-7-x-x-9-x-x-9-x-x-5-x-x-5-x-x-7---6---------------------------------|
E|-5-x-x-5-x-x-7-x-x-7-x-x-3-x-x-3-x-x---------------------------------------|

e|---------------------------------------------------------------------------|
B|---------------------------------------------------------------------------|
G|---------------------------------------------------------------------------|
D|-7-x-x-7-x-x-9-x-x-9-x-x-5-x-x-5-x-x---5---6-------------------------------|
A|-7-x-x-7-x-x-9-x-x-9-x-x-5-x-x-5-x-x---------------------------------------|
E|-5-x-x-5-x-x-7-x-x-7-x-x-3-x-x-3-x-x-3---4---------------------------------|

Verse
e|-----------------------------------|
B|-----------------------------------|
G|---9-11-|
D|--------|
A|--7-9---|
E|--------|

Chorus
e|-------------------------------|
B|-------------------------------|
G|-------------------------------|
D|-------------------------------|
A|-------------------------------|
E|--5~---------------------------|

Solo Part 1
e|---------------------------------------------------------------------------|
B|---------------------------------------------------------------------------|
G|-----------------------------------------------------------|
D|-----------------------------------------------------------|
A|-----------------------------------------------------------|
E|-----------------------------------------------------------|

Solo Part 2 (x8)
e|---------------------------------------------------------------------------|
B|---------------------------------------------------------------------------|
G|---------------2-----------------------------------------------------------|
D|------7--------------------------------------------------------------------|
A|-7x-7---2-3x-2---5---------------------------------------------------------|
E|-5x-5---0-1x-0---3---------------------------------------------------------|

Outro
e|-------------------------------|
B|-------------------------------|
G|-------------------------------|
D|-------------------------------|
A|-------------------------------|
E|--5~---------------------------|

----------------
 Song Structure
----------------
Intro
Main Part 1
Main Part 2
Verse
Chorus
Verse
Chorus
Solo
Main Part 1
Main Part 2
Chorus
Outro
--------------

===============================================================================
| ~  vibrato
| x  Mute note
===============================================================================
Show more