Gypsy Death And You Tab by The Kills


I've been a fan of the Kills for quite some time now, and have been looking for a tab
of this song, So i decided to figure it out myself. It's not a hard song, but sounds
great when played. It's about 90% correct, So I Hope this helps!

Here we go. . .

e-----------------------------------------------|
B-----------------------------------------------|
G--------8---------------5----------------1-----|
D----9------9--------6-----6--------2-------2---|
A-------------9--------------6----------------2-|
E--7---7-----------4---4----------0---0---------|

----------------|
----------------|
-------3--------|
---4------4-----|
------------4---|
-2---2----------|

You can also Do the same pattern with the proper Bar chords:A F# D E

Either way it sounds good. Please rate!

Daniel Igoe
Shamblingman@hotmail.co.uk
Show more