• Song:

    In Love

  • Artist:

    The Kooks

  • Album:

    Too Much Is Not Enough

In Love Tab by The Kooks


-------------------------------------------------------------------------------
			     In Love - Kooks
-------------------------------------------------------------------------------
Tabbed by: Aron S
Email: goodsum@hotmail.com

Tuning: Standard


Intro/Chorus:

e|---------------------------------------------------|1st Time |
B|---------------------------------------------------|--Only---|
G|--------0-------------0-------------0--------------|---------|
D|----1-3---3-1-----1-3---3-1-----1-3---3-1-----1----|---1-----| x2
A|--3-----------3-3-----------3-3-----------3-3---3--|-----3---|
E|---------------------------------------------------|---------|


Verse:

e|-----------------------------------------------|
B|-----------------------------------------------|
G|---------0----------0----------0---------------|
D|-----1-3---3----1-3---3----1-3---3-------------|
A|--3----------3----------1-------------1---1----|
E|-----------------------------------3----3---3--|

e|--------------------------------------|
B|--------------------------------------|
G|---------0----------0----------0------|
D|-----1-3---3----1-3---3----1-3---3-1--|
A|--3----------3----------1-------------|
E|--------------------------------------|


First Pre-Chorus:

e|-------------------------------------------------|
B|---------------------------4/6---3-----4----3h4--|
G|------------------------5------5-----------------|
D|--1-3-1-3----------------------------------------|
A|-------------------------------------------------|
E|-------------------------------------------------|


Solo/Outro:

e|--------3-------------3-------------3------------------|
B|----4-6---6-4-----4-6---6-4-----4-6---6-4-----4---4----|
G|--5-----------5-5-----------5-5-----------5-5---5---5--|
D|-------------------------------------------------------|
A|-------------------------------------------------------|
E|-------------------------------------------------------|


Second Pre-Chorus:

e|------------------------------------------8-8-8-8--|
B|------4/6^-4----6^-4-6----4/6---3----4----8-8-8-8--|
G|--5----------5----------5-----5-----------8-8-8-8--|
D|---------------------------------------------------|
A|---------------------------------------------------|
E|---------------------------------------------------|


Bridge:

e|--6---6---3---3--55--7--9-9-98--3--5--7--8-8-8-8-8-8-8-8--|
B|--8---7---4---4--66--9--9-9-98--4--6--9--8-8-8-8-8-8-8-8--|
G|--8---8---5---5--77--9--9-9-98--5--7--9--8-8-8-8-8-8-8-8--|
D|--8---8---5---5--77--9----------5--7--9-------------------|
A|--6---6---3---3--55--7----------3--5--7-------------------|
E|----------------------------------------------------------|


| /  slide up
| \  slide down
| h  hammer-on
| p  pull-off
| ~  vibrato
| +  harmonic
| x  Mute note
| ^  Bend String
===============================================================================
Show more