• Song:

    All Torn Down

  • Artist:

    The Living End

  • Album:

    Trapped

sponsored links
All Torn Down Tab by The Living End


----------------------------------------------------------------------------
			     ALL TORN DOWN - The Living End
----------------------------------------------------------------------------
Tabbed by: Dan
Tuning: Standard

Hey guys the other version (4) for this song is great but I don't think the solo is 
right. Use that tab for the rest of the song! This is one of my favourite songs and this is 
really cool solo. I'm only 14 so go easy on me. Enjoy.
| /  slide up
| \  slide down
| h  hammer-on
| p  pull-off
| b  bend
| r  release


e|---------------------------------------------------------------|
B|---------------------------------------------------------------|
G|----6-4-------------6-4-------------6-4------------------------|
D|--------6-7-6-4---------6-7-6-4---------6-7-4-7-6-4-7-6-4-7-6--|
A|--4-------------7-4-------------7-----------------------------7|
E|----------------------------------5----------------------------|

e|---------------------------------|
B|--------------------------------4|
G|----------4---4-6p4---4h6-6p4h6--|
D|----7-6-7---6-------6------------|
A|--4------------------------------|
E|---------------------------------|

e|-----------4-5-7/9-7-9/11b(12)11r-9---9h11p9h11p9-----|
B|-5-7-4-5-7------------------------9-9-----------9-----|
G|--------------------------------------------------9---|
D|----------------------------------------------------11|
A|------------------------------------------------------|
E|------------------------------------------------------|

e|--------------------------------------------|
B|------10-9----10-9----10-9----10-9----10-9--|
G|-------------------------------------------9|
D|-9-11------11------11------11------11-------|
A|--------------------------------------------|
E|--------------------------------------------|

This is the fast bit and it's in triplets (3 notes in every beat)

e|-9---------------------------------------------|
B|---12p9----------------------------------------|
G|--------11p9----11p9----11b(13)11rp9-----------|
D|-------------11------11--------------11-11-9-11|
A|-----------------------------------------------|
E|-----------------------------------------------|

End on A
============================================================================
Show more
sponsored links
sponsored links