• Song:

    Fortune Teller

  • Artist:

    The Who

Fortune Teller

i've only been playing for about a year and a half, so forgive me if i made a mistake
but i know the root notes are correct

RIFF 1
---------------------------------------------
---------------------------------------------
-/5-5--3-3--------------------------------
---------------555545454545-10/5--

RIFF 2
-----------------------------------------------
-----------------------------------------------
-5-5--3-3-------------------3-5-4-3------
--------------554545454------------6-5-

RIFF 3
-------------------------------------------
-------------------------------------------
-5-5--3-3-------------3-5-4-3--------
--------------555555-----------7/55-
the first one place one for intro, but the other 2 are 2 of the main riffs john plays
but live he does all kinds of fills with that melody so throw in fills using M blues 
and m blues. when it gets to the "your in love" hold on A note

it repeats the thing over again using different fills, then the kinda stomp part like dun
dun dun dun play G F 

FAST PART
RIFF 1
---------------------------------2-------------
-/2-2-2-2----------------2-0---------------
-------------2-2-0-2--2----------2-2-0-2-
------------------------------------------------
play this over again throwing in rolls and fills then play this at last riff
--------------------------------------------
-2-------------------------------------2--
-----5--2---------------------------------
-------------5--3--------3--5------------ hold notes with guitar

any questions email me at hawaiianfingers@hotmail.com
Show more