• Song:

    I Can Explain

  • Artist:

    The Who

Band: The Who
Song: I Can't Explain
Tabbed By: TeCtAcToE
Instrument: 4-String Bass

=================================
(Verse)
=================================

 First Three Times Only)  Repeat a few times)
G|---------------------|-----------------|
D|---------------------|-----------------|
A|---1/7--5-5-----7-7--|-7--5-5-----7-7--|
E|-------------5-------|---------5-------|

=================================
(Bridge From Verse To Chorus)
=================================

G|-------------|
D|-------------|
A|---7---5-----|
E|----------7--|

=================================
(Chorus)
=================================

G|-------------------------------------------|
D|-------------------------------------------|
A|---7-77-777--4-44-444--0-00-000------------|
E|---------------------------------7-77-777--|

During The Guitar Solo's, just play the Verse over again...
Show more