• Song:

    Im Free

  • Artist:

    The Who

G---------------------------------
D---------------------------------
A---------------------00--222-----
E---00--33--555---22--------------


G---------------------------------
D---------------------------------
A---------------------00--222-----
E---00--33--555---22--------------


G---------------------------------
D---------------------------------
A---------------------00--222-----
E---00--33--555---22--------------


G---------------------------------
D---------------------------------
A---------------------00--222-----
E---00--33--555---22--------------




This is my first tab but its right
just keep playing this throughout the whole song




joey ramone is friggin sweet
Show more