• Song:

    My Generation From Live At Leeds

  • Artist:

    The Who

MY GENERATION

intro VERSE
-----------------------------------------------
-5-5-5-5--3-3-3-3--5-5-5-5--3-3-3-3h5///10///--
-----------------------------------------------
-----------------------------------------------

VERSE
------------------------------------------
-5-5-5-5--3-3-3-3-(pause)-(random slides)-
------------------------------------------
------------------------------------------

1ST CHORIS
------3--5~-5--3----------------------3--5~-3-----------------
-5-5--------------5---3-----3--5--5-5----------5--3------------
-------------------------5---------------------------5-3-------
----------------------------------------------------------6--3-

2ND Choris
-----3-5~-5--3---------------------3--5~-5--3--------
-5-5------------5--3-----3--5--5-5-------------5--3--
----------------------5------------------------------
-----------------------------------------------------

SOLO
-----3--5~--5-5-3-----3-------------------------------
-3-5---------------5-----5-3---3-----5-5-5-5--3-3-3-3-
-----------------------------5----5-------------------
------------------------------------------------------

-------------------------------------------------
-5-5-5-3-------------------3--4-5-5-5-5--3-3-3-3-
----------5--3--------345------------------------
----------------6--3-----------------------------

-----3--5~--5-3-3--3~------------------------------------
-3-5-------------------5-3---3----------5-5-5-5--3-3-3-3-
---------------------------5----5/3--1-------------------
---------------------------------------------------------

--------------------------------------3----------------
-5--5--5-5-5-3--3-3---------------5-5---5--3-3-2-2-2-2-
--------------------5-3--3--1--------------------------
-------------------------------1-----------------------

------------------------------------------
-5-5-5-5--3--3-3--3-3-3--5-5-5-5--3-3-3-3-
------------------------------------------
-----------------------------------------

2ND verse
--------------------------------
-7-7-7-7--5-5-5-5--5h75h75h75h7-
--------------------------------
--------------------------------

MELODY at 12:40 on track 12 of live at leeds

this is the last melody of the track 12 at live at leeds. the guitar intro starts at 12.45 on it. its a reall fun melody with a guitarist. but the rythem isn't written out that good but just listen to this a couple of times with the recording and you'll get it
------------------------------------------
----------5-----------------------5//10//-
-7777-5-7----7777-5------7777-5-7---------
--------------------7-3-------------------

----------------------------------------------
----------5-----------------------5h7-5h7-5h7-
-7777-5-7----7777-5------7777-5-7-------------
--------------------7-3-----------------------

-----765-------------------------------------------
-5h7-----7-5-------5~---------5-7-5------------5h7-
-------------7-5-7-----77-5-7-------7-5--7-5~------
---------------------------------------------------

-----------------------------------------
-5h7-5h7-765~-----------5~--7-6-5--------
--------------7~--7-5-7-----------7-5----
--------------------------------------3~-

---------------------------------------------
----------5~-7-5-7-5---------------5~-7-5----
-7777-5-7------------7-5--7777-5-7--------7~-
---------------------------------------------

------------------------------------------
---------------------------5~-----------5-
----5-7777-5-----5-777-5-7-----7777-5-7---
-7------------7---------------------------

----------------------------------------
-------------------------5~-7-5---------
-7777-5---------7777-5-7--------7-5-----
--------7-3~------------------------7-3-

----------------------------------------------
------------------------------------5~-7-5-7~-
-7777-5--------7777-5------7777-5-7-----------
--------7-3~----------7-3---------------------

-----------5~-----------5~-----------------
-5-5-7-5-7----5-5-7-5-7-----7-5------------
--------------------------------7~-5-------
-------------------------------------7-3~~-
Show more