• Song:

    Pinball Wizard

  • Artist:

    The Who

  • Album:

    The Ultimate Collection

Standard tuning



Intro:


E|-2---------------0---------------0---------------0-------------
B|-3---------------3---------------2---------------2-------------
G|-4---------------4---------------4---------------3-------------
D|-4-4-4-4-4-4-4-4-4-4-4-4-4-4-4-4-4-4-4-4-4-4-4-4-4-4-4-4-4-4-4-
A|---------------------------------------------------------------
E|---------------------------------------------------------------


E|---2---------------0-------------------------------------------
B|---2---------------0---------------0-0-0-0-0-0-0-0-2-2-2-2-2-2-
G|---2---------------0---------------4-4-4-4-4-4-4-4-3-3-3-3-3-3-
D|-4-4-4-4-4-4-4-4-4-4-4-4-4-4-4-4-4-5-5-5-5-5-5-5-5-4-4-4-4-4-4-
A|---------------------------------------------------------------
E|---------------------------------------------------------------


E|-----2-2-2-2-2-2-2-2-
B|-2-2-2-2-2-2-2-2-2-2-
G|-3-3-3-3-3-3-3-3-3-3-
D|-4-4-4-4-4-4-4-4-4-4-
A|---------------------
E|---------------------


Main Part: This part is tricky, you have to bend your thumb over the top of the neck
           and fret it from above. Basically you keep the same hand position and slide down
           2 frets every time
        
        (play 5 times) 
E|-0-0-0-0-0-0-0-0-|-0-0-0-0-0-0-0-0-|-0-0-0-0-0-0-0-0-|-0-0-0-0-0-0-0-0-
B|-7-7-7-7-7-7-7-7-|-7-7-7-7-7-7-7-7-|-5-5-5-5-5-5-5-5-|-5-5-5-5-5-5-5-5-
G|-9-9-9-9-9-9-9-9-|-8-8-8-8-8-8-8-8-|-7-7-7-7-7-7-7-7-|-6-6-6-6-6-6-6-6-
D|-9-9-9-9-9-9-9-9-|-9-9-9-9-9-9-9-9-|-7-7-7-7-7-7-7-7-|-7-7-7-7-7-7-7-7-
A|-0-0-0-0-0-0-0-0-|-0-0-0-0-0-0-0-0-|-0-0-0-0-0-0-0-0-|-0-0-0-0-0-0-0-0-
E|-7-7-7-7-7-7-7-7-|-7-7-7-7-7-7-7-7-|-5-5-5-5-5-5-5-5-|-5-5-5-5-5-5-5-5-


E|-0-0-0-0-0-0-0-0-|-0-0-0-0-0-0-0-0-|-0-0-0-0-0-0-0-0-|-0-0-0-0---
B|-3-3-3-3-3-3-3-3-|-3-3-3-3-3-3-3-3-|-2-2-2-2-2-2-2-2-|-2-2-2-2---
G|-5-5-5-5-5-5-5-5-|-4-4-4-4-4-4-4-4-|-4-4-4-4-4-4-4-4-|-3-3-3-3---
D|-5-5-5-5-5-5-5-5-|-5-5-5-5-5-5-5-5-|-4-4-4-4-4-4-4-4-|-4-4-4-4---
A|-0-0-0-0-0-0-0-0-|-0-0-0-0-0-0-0-0-|-0-0-0-0-0-0-0-0-|-0-0-0-0---
E|-3-3-3-3-3-3-3-3-|-3-3-3-3-3-3-3-3-|-3-3-3-3-3-3-3-3-|-3-3-3-3---


Chorus:


E|-2-2-2-0-2-0-0-0-0-0--
B|-4-4-4-2-3-0-0-0-0-0--
G|-4-4-4-2-2-1-1-1-1-1--
D|-4-4-4-2---2-2-2-2-2--
A|-----------2-2-2-2-2--
E|-----------0-0-0-0-0--


Bridge:


E|-0-2-2-0-0-3-3-3-3-3-3-3-3-2-2-2-2-2-2-2-2--
B|-0-2-4-0-0-3-3-3-3-3-3-3-3-3-3-3-3-3-3-3-3--
G|-1-3-4-0-1-4-4-4-4-4-4-4-4-2-2-2-2-2-2-2-2--
D|-2-4-4-2-2-5-5-5-5-5-5-5-5-4-4-4-4-4-4-4-4--
A|-2-----2-2----------------------------------
E|-0-----0-0----------------------------------

some people say that the thumb part in unnecessary, I think it makes it sound a lot better and a lot fuller sound
Show more