• Song:

    Pinball Wizard

  • Artist:

    The Who

  • Album:

    The Ultimate Collection

Intro
---------9-7-4-3-2-0-2-----0-2-4-7-9-12-9/7-----0-2---------------
-----------------------0-2------------------0-2-----2---2---2---2-
-19/12/7----------------------------------------------------------
------------------------------------------------------0---0---0---

Verse                                  *x4
-----------------------------          
---2---0---------------------
------------0-3-2-0----------
-0---0---0----------3-3-3/12-

Chorus 1          *x16
-----
---2-
-----
-0---

Chorus 2
-FIRST CHORUS x 14-|----0-2------|-FIRST CHORUS x 16
-FIRST CHORUS x 14-|--------0-2--|-FIRST CHORUS x 16
-FIRST CHORUS x 14-|-------------|-FIRST CHORUS x 16
-FIRST CHORUS x 14-|-------------|-FIRST CHORUS x 16

Fill                x4
-------------------|----
-----2-0(x4)-----2-|2-0-
-------------------|----
-0-0---------0-0---|----

Ending
-----------------------------------------------------------------------------------
---2---2---------------------------------------------------------------------------
---------------------------------------------00000000-00000000-00000000-00000000---
-0---0---00000000-00000000-33333333-33333333-------------------------------------0-
Show more