• Song:

    See Me Feel Me (live)

  • Artist:

    The Who

Artist: The Who
Song: See me, Feel Me
Live at Woodstock
Tabbed by: Aceduck

Amazing song! Live version even better than the original!

Standard Tuning (E, A, D, G, B, e)

INTRO (0:08) - Clean Guitar

  A#/Bb6  Fsus   F     G
e |--6--|--6--|--5--|--3--|
B |--8--|--6--|--6--|--0--|
G |--7--|--5--|--5--|--0--|  Play this two times
D |--8--|-----|-----|--0--|
A |-----|-----|-----|--2--|
E |-----|-----|-----|--3--|

On third time, strum once for every beat.

On fourth time, replace G with this:

|------------------------------5---5---5---5-----------------|
|------------------------------5---5---5---5-----------------|
|-----4-------4-------4--------4---4---4---4---4---4---4---4-|
|-----4-------4-------4--------4---4---4---4---4---4---4---4-|
|-2-2-2-2-2-2-2-2-2-2-2--2-2-2-2-2-2-2-2-2-2-2-2-2-2-2-2-2-2-|
|------------------------------------------------------------|

VERSE (1:19) - Clean Guitar

      A5     B5     C5    C5        A5     B5    Em    Em
|----------------------------|----------------------------|
|----------------------------|----------------------------|
|-----2------4------5-----5--|------2------4--------------|
|-----2------4------5-----5--|------2------4-----2-----2--|
|-0-0-0--2-2-2--3-3-3-3-3-3--|--0-0-0--2-2-2-----2-----2--|
|----------------------------|---------------0-0-0-0-0-0--|

       A5     B5     C5    G    D    Bsus4    B
|-----------------------|--3-3--2-2--7-7-7-7--7-7-7-7--|
|-----------------------|--0-0--3-3--7-7-7-7--7-7-7-7--|
|------2------4------5--|--0-0--2-2--9-9-9-9--8-8-8-8--|
|------2------4------5--|--0-0-------9-9-9-9--9-9-9-9--|
|--0-0-0--2-2-2--3-3-3--|--2-2-------7-7-7-7--7-7-7-7--|
|-----------------------|--3-3-------------------------|

Play verse four times.

SOLO ONE (2:39) - Heavy Distorted Guitar

|---------------------------------------------------------|
|---------------------------------------------------------|
|------2------4------5------5------2------4---------------|
|------2------4------5------5------2------4------2-----2--|
|--0-0-0--2-2-2--3-3-3--3-3-3--0-0-0--2-2-2------2-----2--|
|--------------------------------------------0-0-0-0-0-0--|

*bend open E by pushing on the string above the nut.
|--------------------------------|--------------------------------|
|--------------------------------|----------4------5--5--5--5-----|
|--------------------------------|--------------------------------|
|------------------2--4----------|--2--2/4----4/--5--5--5--5--5/--|
|--0--2--0h2--3----0--2----------|--0-----------------------------|
|------------------------0^~~~~--|--------------------------------|

|------------------------------------------|
|-----10------7------7---------------------|
|-----------------------8/9--8/9--8/9--8~--|
|--10-----/7-----/9------------------------|
|------------------------------------------|
|------------------------------------------|

VERSE (2:57)- Clean Guitar

      A5     B5     C5    C5        A5     B5    Em    Em
|----------------------------|----------------------------|
|----------------------------|----------------------------|
|-----2------4------5-----5--|------2------4--------------|
|-----2------4------5-----5--|------2------4-----2-----2--|
|-0-0-0--2-2-2--3-3-3-3-3-3--|--0-0-0--2-2-2-----2-----2--|
|----------------------------|---------------0-0-0-0-0-0--|

       A5     B5     C5    G    D    Bsus4    B
|-----------------------|--3-3--2-2--7-7-7-7--7-7-7-7--|
|-----------------------|--0-0--3-3--7-7-7-7--7-7-7-7--|
|------2------4------5--|--0-0--2-2--9-9-9-9--8-8-8-8--|
|------2------4------5--|--0-0-------9-9-9-9--9-9-9-9--|
|--0-0-0--2-2-2--3-3-3--|--2-2-------7-7-7-7--7-7-7-7--|
|-----------------------|--3-3-------------------------|

Play verse two times.

SOLO TWO (3:33) - Heavy Distorted Guitar

|--12-------12-------12-------12~-----12--|----------------------------------|
|-----15b17----15b17----15b17------15-----|--12--15--12----------------------|
|-----------------------------------------|--------------14--12--14--12------|
|-----------------------------------------|------------------------------12--|
|-----------------------------------------|----------------------------------|
|-----------------------------------------|----------------------------------|

|----------------------------------------------|
|------------------5---------------------------|
|----------------------------------------------|
|------------2-3/5---------------------4-5/9~--|
|--0-2-0-2/3--------------------2-3-5----------|
|---------------------0-2-0-2/3----------------|

VERSE (3:51) - Distorted Guitar

      A5     B5     C5    C5        A5     B5    Em    Em
|----------------------------|----------------------------|
|----------------------------|----------------------------|
|-----2------4------5-----5--|------2------4--------------|
|-----2------4------5-----5--|------2------4-----2-----2--|
|-0-0-0--2-2-2--3-3-3-3-3-3--|--0-0-0--2-2-2-----2-----2--|
|----------------------------|---------------0-0-0-0-0-0--|

       A5     B5     C5    G    D    Bsus4    B
|-----------------------|--3-3--2-2--7-7-7-7--7-7-7-7--|
|-----------------------|--0-0--3-3--7-7-7-7--7-7-7-7--|
|------2------4------5--|--0-0--2-2--9-9-9-9--8-8-8-8--|
|------2------4------5--|--0-0-------9-9-9-9--9-9-9-9--|
|--0-0-0--2-2-2--3-3-3--|--2-2-------7-7-7-7--7-7-7-7--|
|-----------------------|--3-3-------------------------|

Play verse two times.

GUITAR FILL (4:26) - Heavy Distorted Guitar

|-----------------------------|------------3--2--7--7--------------------
|-----------------------------|------------0--3--7--7--------------------
|--2~-4~-5~--5/9/2---2~-4~----|--2~-4~-5~--0--2--9--8------------------------------------
|--2~-4~-5~--5/9/2---2~-4~-2~-|--2~-4~-5~--0-----9--9------------------------------------
|--0~-2~-3~--3/7/0---0~-2~-2~-|--0~-2~-3~--2-----7--7-------------------------------------
|--------------------------0~-|------------3----------------------------

VERSE (4:44) - Clean Guitar

      A5     B5     C5    C5        A5     B5    Em    Em
|----------------------------|----------------------------|
|----------------------------|----------------------------|
|-----2------4------5-----5--|------2------4--------------|
|-----2------4------5-----5--|------2------4-----2-----2--|
|-0-0-0--2-2-2--3-3-3-3-3-3--|--0-0-0--2-2-2-----2-----2--|
|----------------------------|---------------0-0-0-0-0-0--|

       A5     B5     C5    G    D    Bsus4    B
|-----------------------|--3-3--2-2--7-7-7-7--7-7-7-7--|
|-----------------------|--0-0--3-3--7-7-7-7--7-7-7-7--|
|------2------4------5--|--0-0--2-2--9-9-9-9--8-8-8-8--|
|------2------4------5--|--0-0-------9-9-9-9--9-9-9-9--|
|--0-0-0--2-2-2--3-3-3--|--2-2-------7-7-7-7--7-7-7-7--|
|-----------------------|--3-3-------------------------|

OUTRO (5:05) - Clean Guitar

|------------------------------------|
|------------------------------------|
|--2-2--4-4--2-2--4-4--2-2--4-4------|
|--2-2--4-4--2-2--4-4--2-2--4-4--2~--|
|--0-0--2-2--0-0--2-2--0-0--2-2--2~--|
|--------------------------------0~--|

If you have any questions, e-mail me at matthew_maier@hotmail.com

Thank you, and please remember to rate my tab!
Show more