• Song:

    Substitute

  • Artist:

    The Who

  • Album:

    Singles Box

Band Name: The Who
Song Name: Substitute
Bassist: John Entwistle

Intro
G|----------------------------------|----------------------------------------|
D|----------------------------------|----------------------------------------|
A|--5---------5----5-------------5--|--5--------------5----5--------------5--|
E|-------7------------------7-------|-------5----7--------------5----7-------|

Verse
G|------------------------|-------------------------|----------------------|------------------------|
D|------------------------|-------------------------|----------------------|------------------------|
A|--5-------5--5----------|----------------5--------|--5-------5--5-----5--|--5-------5--5-------5--|
E|-------7----------7--5--|--3--3--3--5/7-----7--5--|-------7--------7-----|-----5-7--------5-7-----|

Bridge
G|----------------------|--------------------------|--------------------------|
D|-------2-----------0--|--7--7--7--7--7--7--7--7--|--7--7--7--7--7--7--7--7--|
A|---------------0-2----|--------------------------|--------------------------|
E|--0---------3---------|--------------------------|--------------------------|

Chorus
G|----------------------7--|----7--7--7--------------|----------------------7--|
D|-------------------------|-------------------------|-------------------------|
A|--5----5--5--5--5--5-----|-------------5--5--5--5--|--5----5--5--5--5--5-----|
E|-------------------------|-------------------------|-------------------------|

G|----7--7-----------------|-----------------------7--|----7--7--7--7--|-------|
D|-------------------------|--------------------------|----------------|-------|
A|----------5--5--5--5--5--|--5--5--5--5--5--5--5-----|----------------|--5----|
E|-------------------------|--------------------------|----------------|-------|

Bass Solo
G|--------------------------|--------6-----4-----6--4--|--------------------------|--------------------------|
D|--------------4-----5--4--|--5--5-----5-----5--------|--------------4-----5--4--|--------------4-----5--4--|
A|--5--5--5--5-----5--------|--------------------------|--5--5--5--5-----5--------|--5--5--5--5-----5--------|
E|--------------------------|--------------------------|--------------------------|--------------------------|

Enjoy!

PLEASE RATE THIS TAB!
Show more