• Song:

    Cheers

  • Artist:

    The Wildhearts

  • Album:

    The Wildhearts Strike B...

The Wildhearts 
Cheers

Play this tab in drop D


Intro :




E-------------4------------------------------      play twice
B-----1-4-4-4!--6-4-----1!-4-----------------
G-1-3---------------1-3------3!-1/3----------
D-----------------------------------3-1/3----
A-----------------------------------------4!-
D--------------------------------------------

E------------11-13----------------------------------------------
B----9-11-13-------13-11-9----9-11-11/13-11---------------------
G-10-----------------------10---------------10-10!-10-----12-9!-
D-----------------------------------------------------12!-------
A---------------------------------------------------------------
D---------------------------------------------------------------

E------------11-13-16-13-------13/16----16-20-16-15-16-------16----
B----9-11-13-------------13-11-------18----------------18-16----18-
G-10---------------------------------------------------------------
D------------------------------------------------------------------
A------------------------------------------------------------------
D------------------------------------------------------------------

E----16-20-16-15-16-------16--------20-18--------------------
B-18----------------18-16----18---18------21-18----21-16-18--
G-----------------------------------------------20-----------
D------------------------------------------------------------
A------------------------------------------------------------
D------------------------------------------------------------

E--------16-20-18----------------
B-16-18-----------21-18----21-18-  brief pause
G-----------------------20-------
D--------------------------------
A--------------------------------
D--------------------------------

E--------------------16-13-----------------------------------------
B-------13-16-16-16!-------16-------13!-16-------------------------
G-13-15-----------------------13-15--------15!-13-15---------------
D----------------------------------------------------15!-13-15-----
A--------------------------------------------------------------16!-
D------------------------------------------------------------------

End of the introduction


Bridge :

E------------------------------------------------------------------  x2
B------------------------------------------------------------------
G--------------------------------------------------------------8-8-
D-6-6-6-6-6-6-6-6--1-1-1-1-1-1-1-1--6-6-6-6-6-6-6-6--1-1-1-1-1-8-8-
A-6-6-6-6-6-6-6-6--1-1-1-1-1-1-1-1--6-6-6-6-6-6-6-6--1-1-1-1-1-6-6-
D-6-6-6-6-6-6-6-6--1-1-1-1-1-1-1-1--6-6-6-6-6-6-6-6--1-1-1-1-1-----

E----------------------------------
B----------------------------------
G-----------------------8-
D-4-    -3-    -8-     -8- x16
A-4- x8 -3- x8 -8- x16 -6-
D-4-    -3-    -8-     ------------

End of Bridge

Chorus :

E----------------------------------  x2
B----------------------------------
G--------8-    -6-    -------------
D-6-    -8- x8 -6- x8 -1-1--3-3--5-
A-6- x8 -6-    -4-    -1-1--3-3--5-
D-6-    ---------------1-1--3-3--5-

E--------------- x2  E---------------------------------------------------------
B---------------     B---------------------------------------------------------
G-5-    -6-    -     G-5-    -6-    -8-    ------------------------------------
D-5- x8 -6- x8 -     D-5- x8 -6- x4 -8- x4 -6!-----6-10-8-8!-6!------6-10-8-8!-
A-3-    -4-    -     A-3-    -4-    -6-    -6!-6-8-----------6!--6-8-----------
D---------------     D----------------------6!---------------6!----------------
                                              Fill
End of Chorus

Repeat Bridge + chorus

Ending:

E-------------4------------------------------      
B-----1-4-4-4!--6-4-----1!-4-----------------
G-1-3---------------1-3------3!-1/3----------
D-----------------------------------3-1/3----
A-----------------------------------------4!-
D--------------------------------------------

please rate
graet song, i love it
Thanks
SAM6O
Show more