• Song:

    Get Your Groove On

  • Artist:

    The Wildhearts

  • Album:

    The Wildhearts Must Be ...

Artist: The Wildhearts
Song: Get Your Groove On
Album: The Wildhearts Must Be Destroyed
Tuning:  Eb



Intro:
eb|---------------------------------------------------------------------------| x2
Bb|---------------------------------------------------------------------------|
Gb|---------------------------------------------------------------------------|
Db|--2--2---2---2---------2--2---2---2-------2--2--2---2----------------------|
Ab|--2--2---2---2---------2--2---2---2-------2--2--2---2----------------------|
Eb|--0--0---0---0---------0--0---0---0-------0--0--0---0----------------------|


Verse:
eb|-------------------------------------------------------------------------------------------------|
Bb|-------------------------------------------------------------------------------------------------|
Gb|--------------------------------------------------------------------------7--6---6--5--5---4-----|
Db|---2--2--2-2-2---5--10--9----2--2--2-2-2---5-9--8------2--2-2-2-2----5----7--6---6--5--5---4-----|
Ab|---2--2--2-2-2---5--10--9----2--2--2-2-2---5-9--8------2--2-2-2-2----5----5--4---4--3--3---2-----|
Eb|---0--0--0-0-0---3---8---7---0--0--0-0-0---3--7-6------0--0--0-0-0---3---------------------------|

eb|-------------------------------------------------------------------------|
Bb|-------------------------------------------------------------------------|
Gb|-------------------------------------------------------------------------|
Db|---2---5----2----8--7--5--0--------2---5----2----8--7--5--0--------------|
Ab|---2---5----2----8--7--5--2--------2---5----2----8--7--5--2--------------|
Eb|---0---3----0----6--5--3--0--------0---3----0----6--5--3--0--------------|

eb|-------------------------------------------------------------------------------------------------|
Bb|-------------------------------------------------------------------------------------------------|
Gb|--------------------------------------------------------------------------7--6----6--5----5---4--|
Db|---2--2--2-2-2---5--10--9----2--2--2-2-2---5-9--8------2--2-2-2-2----5----7--6----6--5----5---4--|
Ab|---2--2--2-2-2---5--10--9----2--2--2-2-2---5-9--8------2--2-2-2-2----5----5--4----4--3----3---2--|
Eb|---0--0--0-0-0---3---8---7---0--0--0-0-0---3-7--6------0--0--0-0-0---3---------------------------|

Chorus:
eb|------------------------------------------------------------------------------| x4
Bb|------------------------------------------------------------------------------|
Gb|------------------------------------------------------------------------------|
Db|--5--5--5--5--5--5--5--5-----5--5------5--5--5--5--5--5--5--5-----5--5--------|
Ab|--5--5--5--5--5--5--5--5-----5--5------5--5--5--5--5--5--5--5-----5--5--------|
Eb|--3--3--3--3--3--3--3--3-----3--3------3--3--3--3--3--3--3--3-----3--3--------|


Verse:
eb|--------------------------------------------------------------------------------------------------| x2
Bb|--------------------------------------------------------------------------------------------------|
Gb|--------------------------------------------------------------------------7--6---6--5--5---4------|
Db|---2--2--2-2-2---5--10--9----2--2--2-2-2---5-9--8------2--2-2-2-2----5----7--6---6--5--5---4------|
Ab|---2--2--2-2-2---5--10--9----2--2--2-2-2---5-9--8------2--2-2-2-2----5----5--4---4--3--3---2------|
Eb|---0--0--0-0-0---3---8--7----0--0--0-0-0---3-7--6------0--0--0-0-0---3----------------------------|

eb|-------------------------------------------------------------------------|
Bb|-------------------------------------------------------------------------|
Gb|-------------------------------------------------------------------------|
Db|---2---5----2----8--7--5--0--------2---5----2----8--7--5--0--------------|
Ab|---2---5----2----8--7--5--2--------2---5----2----8--7--5--2--------------|
Eb|---0---3----0----6--5--3--0--------0---3----0----6--5--3--0--------------|

eb|----------------------------------------------------------------------------------------------=----|
Bb|---------------------------------------------------------------------------------------------------|
Gb|--------------------------------------------------------------------------7--6----6--5----5---4----|
Db|---2--2--2-2-2---5--10--9----2--2--2-2-2---5-9--8------2--2-2-2-2----5----7--6----6--5----5---4----|
Ab|---2--2--2-2-2---5--10--9----2--2--2-2-2---5-9--8------2--2-2-2-2----5----5--4----4--3----3---2----|
Eb|---0--0--0-0-0---3---8--7----0--0--0-0-0---3-7--6------0--0--0-0-0---3-----------------------------|



Chorus:
eb|------------------------------------------------------------------------------|
Bb|------------------------------------------------------------------------------|
Gb|------------------------------------------------------------------------------|
Db|--5--5--5--5--5--5--5--5-----5--5------5--5--5--5--5--5--5--5-----5--5--------|
Ab|--5--5--5--5--5--5--5--5-----5--5------5--5--5--5--5--5--5--5-----5--5--------|
Eb|--3--3--3--3--3--3--3--3-----3--3------3--3--3--3--3--3--3--3-----3--3--------|

eb|------------------------------------------------------------------------------|
Bb|------------------------------------------------------------------------------|
Gb|------------------------------------------------------------------------------|
Db|--5--5--5--5--5--5--5--5-----5--5------5--5--5--5--5--5--5--5-----5--5--------|
Ab|--5--5--5--5--5--5--5--5-----5--5------5--5--5--5--5--5--5--5-----5--5--------|
Eb|--3--3--3--3--3--3--3--3-----3--3------3--3--3--3--3--3--3--3-----3--3--------|

eb|------------------------------------------------------------------------------|
Bb|------------------------------------------------------------------------------|
Gb|------------------------------------------------------------------------------|
Db|--5--5--5--5--5--5--5--5-----5--5------5--5--5--5--5--5--5--5-----5--5--------|
Ab|--5--5--5--5--5--5--5--5-----5--5------5--5--5--5--5--5--5--5-----5--5--------|
Eb|--3--3--3--3--3--3--3--3-----3--3------3--3--3--3--3--3--3--3-----3--3--------|

eb|------------------------------------------------------------------------------|
Bb|------------------------------------------------------------------------------|
Gb|------------------------------------------------------------------------------|
Db|--5--5--5--5--5--5--5--5-----5--5------5--5--5--5--5--5--5--5-----5--4--------|
Ab|--5--5--5--5--5--5--5--5-----5--5------5--5--5--5--5--5--5--5-----5--4--------|
Eb|--3--3--3--3--3--3--3--3-----3--3------3--3--3--3--3--3--3--3-----3--2--------|

End
Show more