• Song:

    Greetings From sville

  • Artist:

    The Wildhearts

I was taken back by the lack of Wildhearts tabs (even though they are a great band) so i've done something about it. 

INTRO
                      [1.2.3.               [4.
E||----------|--------|--------|--------|| ||--------|--------||
B||----------|--------|--------|--------|| ||--------|--------||
G||o---------|--------|--------|-------o|| ||--------|--------||
D||o---------|--------|--------|-------o|| ||--------|--------||
A||--5-4-3---|------7-|8-----8-|7-----7-|| ||8-----8-|7-------||
E||--------3-|4-5-6---|--8-7---|--8-6---|| ||--8-7---|--------||


                       P.M.-------------|    X4
E||----------|--------|--------|--------||
B||----------|--------|--------|--------||
G||o---------|--------|--------|-------o||
D||o--------9|--8-7---|--------|-------o||
A||--9-8-7--7|--6-5---|----4---|----4---||
E||--7-6-5---|--------|0-1-2-00|-01-2---||



VERSE                                   X2
E||----------|--------|--------|--------||
B||----------|--------|--------|--------||
G||o---------|--------|--------|-------o||
D||o-4-------|2-------|--------|-------o||
A||--2-------|0---2---|4-4-4-22|----4---||
E||----------|----0---|2-2-2-00|-01-2---||
   The paper's........

E||--------|--------|--------|--------|--------|--------|
B||--------|--------|--------|--------|--------|--------|
G||--------|--------|--------|--------|--------|--------|
D||7-------|--------|--------|----9---|--------|--------|
A||9-------|9-------|7-------|7---7---|9---9-7-|-88-9---|
E||--------|7-------|2-------|5---0---|7---7-5-|-66-7---|
                               ... Misery Street ...

   [1.w/riff 1           RiFF 1
E||--------|--------||  ||--------|--------||
B||--------|--------||  ||--------|--------||
G||--------|-------o||  ||--------|-------o||
D||--------|-------o||  ||------7-|--8-9--o||
A||9---9-7-|-88-9---||  ||9---9---|--------||
E||7---7-5-|-66-7---||  ||7---7-5-|--6-7---||
  
  [2.
E||--------|--------|
B||--------|--------|
G||--------|--------|
D||--------|--------|
A||9-------|9-9-10--|
E||7-------|7-7-8---|


CHORUS

The chords here are strummed.

                                    2nd TiME PLAY RiFF 2 HERE
||:C#'''|''''|G#'''|''''|F#'''|''''|A#'''|''''|
   COME ON OVER....                                 X2
                           
|| B'''|''''|F#'''|''''|C#''B|C C#''|'''B|C C#'':||
  
   RiFF 2
E||--------|--------|
B||--------|--------|
G||--------|--------|
D||--------|--------|
A||----5-7-|7^--5---|
E||--------|--------|

||E'''|'''F#|'F#----|

  Greetings.....London


                       P.M.-------------|    X2
E||----------|--------|--------|--------||
B||----------|--------|--------|--------||
G||o---------|--------|--------|-------o||
D||o--------9|--8-7---|--------|-------o||
A||--9-8-7--7|--6-5---|----4---|----4---||
E||--7-6-5---|--------|0-1-2-00|-01-2---||

VERSE
                                      X2
E||----------|--------|--------|--------||
B||----------|--------|--------|--------||
G||o---------|--------|--------|-------o||
D||o-4-------|2-------|--------|-------o||
A||--2-------|0---2---|4-4-4-22|----4---||
E||----------|----0---|2-2-2-00|-01-2---||

   And all my........

E||--------|--------|--------|--------|--------|--------|
B||--------|--------|--------|--------|--------|--------|
G||--------|--------|--------|--------|--------|--------|
D||7-------|--------|--------|----9---|--------|--------|
A||9-------|9-------|7-------|7---7---|9---9-7-|-88-9---|
E||--------|7-------|2-------|5---0---|7---7-5-|-66-7---|
                           ... Misery Street ...
   [1.
E||--------|--------||  
B||--------|--------||  
G||--------|-------o||  
D||--------|-------o||  
A||9---9-7-|-88-9---||  
E||7---7-5-|-66-7---||  
  
  [2.
E||--------|--------|
B||--------|--------|
G||--------|--------|
D||--------|--------|
A||9-------|9-9-10--|
E||7-------|7-7-8---|


CHORUS
                                    2nd TiME PLAY RiFF 2 HERE
||:C#'''|''''|G#'''|''''|F#'''|''''|A#'''|''''|
   COME ON OVER....                                 X2
                           
|| B'''|''''|F#'''|''''|C#''B|C C#''|'''B|C C#'':||
  
   RiFF 2
E||--------|--------|
B||--------|--------|
G||--------|--------|
D||--------|--------|
A||----5-7-|7^--5---|
E||--------|--------|

||E'''|'''F#|'F#----|
  Greetings.....London

CHUGGY BiT

I think this is right...

 (W/heavy P.M. and harmonics)

||EEEE|EEEE|EEEE|EEEE||

       P.M.----------|   P.M.------|        X4
E||----------|--------|--------|--------||
B||----------|--------|--------|--------||
G||o---------|--------|--------|-------o||
D||o---------|--------|--------|-------o||
A||----------|--------|--------|------5-||
E||--5-3-2-0-|3-2-0-2-|5-3-2-0-|3-2-----||


CHORDS FOR SOLO

I'm not sure if these are right, but they seem to work.

Don't try to use the bars as a timing guide, play along
with the song to get it right.

                                       [1.3.
E||----------|------------|------------|--------||
B||----------|------------|------------|--------||
G||o---------|------------|------------|-------o||
D||o---------|------------|------------|-------o||
A||--9-8-7---|6-sl-7----7-sl-4--6-sl-7-|--6-7-8-||
E||--7-6-5---|4-sl-5----5-sl-2--4-sl-5-|--4-5-6-||

  [2.          [4. 
E||--------|| ||--------||
B||--------|| ||--------||
G||-------o|| ||--------||
D||-------o|| ||--------||
A||7---7---|| ||6-sl-7--||
E||5---5---|| ||4-sL-5--||

BRiDGE

Just chords:

||F#'''|''''|G#'''|''''|C#'''|G#'''|A'''|E'''||
  The heating's.....

||F#'''|''''|G#'''|''''|AAAA|AAAA|AAAA|AAAA||
  I drink.......

VERSE 3
                                     X2
E||----------|--------|--------|--------||
B||----------|--------|--------|--------||
G||o---------|--------|--------|-------o||
D||o-6-------|4-------|--------|-------o||
A||--4-------|2---4---|6-6-6-44|-45-6---||
E||----------|----2---|4-4-4-22|-23-4---||
   So now.....

||F#'''|C#'''|G#'''|C#'''|F#'''|G#'''|
  Ducking and...

||BBBB|BBBB|BBBB|BBCC|
  Pay.......SOooo....

CHORUS

                                    2nd TiME PLAY RiFF 2 HERE
||:C#'''|''''|G#'''|''''|F#'''|''''|A#'''|''''|
   COME ON OVER....                                 X2
                           
|| B'''|''''|F#'''|''''|C#''B|C C#''|'''B|C C#'':||

Fin!
Show more