• Song:

    Just In Lust

  • Artist:

    The Wildhearts

  • Album:

    The Best of the Wildhea...

The Wildhearts
just in lust
tune down half a step

GINGER RULES
                                           [1.
E||--------------|------------|------------|------------|------------|
B||--------------|------------|------------|------------|------------|
G||o-12-12-12-12-|12----12----|11-11----11-|------------|------------|
D||o-12-12-12-12-|12----12----|12-12----12-|------------|14-14-14-14-|
A||--------------|---10----10-|------12----|12-12-12-12-|12-12-12-12-|
E||--------------|------------|------------|------------|------------|

E||------------|------------|----------------||
B||------------|------------|----------------||
G||------------|------------|---------------o||
D||14----14----|16-16----16-|---14-sl-12----o||
A||12-12----12-|14-14-14-14-|14-12-sl-10-----||
E||------------|------------|----------------||

  [2.
E||------------|------------|----------------|------------|------------|
B||------------|------------|----------------|------------|------------|
G||------------|------------|----------------|12-12----12-|------------|
D||------14----|14-14----14-sl-16-sl-14-14---|12-12----12-|12-12-12-12-|
A||12-12-12-12-|12-12-12-12-sl-14-sl-12-12---|------10----|10-10-10-10-|
E||------------|------------|----------------|------------|------------|

E||------------|------------|------------|------------|
B||------------|------------|------------|------------|
G||12-12-12----|12-12-12----|------------|------------|
D||12-12-12-12-|12-12-12----|12-12-12-12-|12-12-12----|
A||---------10-|------------|10-10-10-10-|10-10-10----|
E||------------|------------|------------|------------|

BASIC PATERN
                                [1.3.
||:G'''|G'''|G D''|D''|D A''|A''|A B'''|B'A G:||
 [2.
||G'''|G'''|GGG|GGG|GGG|GGGG:||
 [4.
||G'''|G'''|GGG|GG D||


VERSE


                              
E||----------|--------|--------|--------|| ||----|----|----|----|-----||
B||----------|--------|--------|--------|| ||----|----|----|----|-----||
G||o---------|--------|--------|-------o|| ||----|----|----|----|----o||
D||o-7-------|--------|--------|-------o|| ||----|----|----|----|---6o||
A||--5-----2-|3-------|--2-----|--------|| ||----|7---|(7)-|(7)-|---4-||
E||----------|------2-|3---3---|--------|| ||----|5---|(5)-|(5)-|-----||

   How you been....                               It's just ......

  
E||----|----|----|----|----||
B||----|----|----|----|----||
G||----|----|----|----|----||
D||----|----|----|----|----||
A||----|7---|(7)-|(7)-|(7)-||
E||----|5---|(5)-|(5)-|(5)-||


RiFF 1
E||----------|----------|
B||----------|----------|
G||12---12---|11---14---|
D||12---12---|12---14--6|
A||----------|12---12--4|
E||----------|----------|

RiFF 2
E||----------|----------|
B||----------|----------|
G||12---12---|11---11---|
D||12---12---|12---12---|
A||----------|12---12---|
E||----------|----------|

Now to the chorus.
SIMPLE BUT EFFECTIVE

||:G'''|''''|''''|''''|D'''|''''|A'''|'''':||  X3
   One of these days.....

||G'GGG|G'GGG|G'''|''''||
              

Now play the verse again with HEAVY feedback.

||:G'''|''''|''''|''''|D'''|''''|A'''|'''':||  X3


||G'''|''''|'GGG|GGGG|

BRiDGE


        A A A  D                A  A  A  D
E||-----------|-------------|-----------|-------------|
B||-----------|-------------|-----------|-------------|
G||o----9-9-7-|11-111111-11-|11-12-12-7-|11--11-11-11-|
D||o----------|-------------|-----------|-------------|
A||-----7-7-5-|9 -9 9 9 -9 -|9 -10-10-5-|9 --9 -9 -9 -|
E||-----------|-------------|-----------|-------------|

  [1.
      B  B        A A       G G    D
E||-----------|---------|---------|----||
B||-----------|---------|---------|----||
G||---11-11---|---9-9---|---7-7-7-|7--o||
D||-----------|---------|---------|7--o||
A||---9 -9 ---|---7-7---|---5-5-5-|5---||
E||-----------|---------|---------|----||

  [2.
   E                 A A A
E||--------|--------|--------|
B||--------|--------|--------|
G||--------|--------|9-9-9---|
D||--------|--------|--------|
A||2-2-2-2-|2-2-2-2-|7-7-7---|
E||0-0-0-0-|0-0-0-0-|--------|

chorus...
||:G'''|''''|''''|''''|D'''|''''|A'''|'''':||  X3

||G'''|G'''|G'''|G'''|G'''|G'''|G'''|G'''|G


please rate
thanks
SAM6O
Show more