• Song:

    Top Of The World

  • Artist:

    The Wildhearts

  • Album:

    The Wildhearts Strike B...

The Wildhearts: Top Of The World
Tuning= Down 1/2 a step: Eb, Ab, Db, Gb,
tabbed by: mmfan486


       Intro/main riff
Gb:--||----------------|--2---4---2-----|----------------|--2---4---2-----|
Db:--||----------------|----------------|----------------|----------------|
Ab:0-||2-2-2---2---2---|0---0-----------|2-2-2---2---2---|0---0-----------|
Eb:--||----------------|----------------|----------------|----------------|

Gb:----------------|--2---4---2-----|----------------|----------------|
Db:----------------|----------------|----2-----------|----------------| repeat
Ab:2-2-2---2---2---|0---0-----------|----------------|----------------|   *2
Eb:----------------|--------------0-|--------0-2-4-5-|--5---5---4-2---|/

The first time this riff is played, the bass only plays in the second
repeat.

Bridge 1

Gb:----------------|----------------|----------------|----------------|
Db:----------------|----------------|----------------|----------------| repeat
Ab:----------------|------------5-6-|7-7-5-7-----7-7-|----------------|   *2
Eb:7-7-5-7-----7-7-|5-7-----7-7-----|----------------|5-5-----5-5-5-6-|/


Verse 1

Gb:----------------|----------------|----------------|----------------|
Db:----------------|----------------|----------------|----------------|
Ab:----------------|----------------|----------------|----------------|
Eb:7-7-7-7-7-7-7-7-|7-7-7-7-7-7-7-7-|5-5-5-5-5-5-5-5-|5-5-5-5-5-5-5-5-|

Gb:----------------|----------------|----------------|----------------|
Db:----------------|----------------|----------------|----------------|
Ab:----------------|----------------|----------------|----------------|
Eb:0-0-0-0-0-0-0-0-|5-5-5-5-5-4-2-2-|7---5-7---5-7---|5-7---5-7---5-6-|

Gb:----------------|----------------|----------------|----------------|
Db:----------------|----------------|----------------|----------------|
Ab:----------------|----------------|----------------|----------------|
Eb:7-7-7-7-7-7-7-7-|7-7-7-7-7-7-7-7-|5-5-5-5-5-5-5-5-|5-5-5-5-5-5-5-5-|

Gb:----------------|----------------|----------------|----------------|
Db:----------------|----------------|----------------|----------------|
Ab:----------------|----------------|----------------|----------------|
Eb:0-0-0-0-0-0-0-0-|5-5-5-5-5-4-2-2-|7---5-7-----7---|5-7-----7-------|


Chorus

Gb:----------------|----------------|----------------|----------------|
Db:----------------|----------------|----------------|----------------|
Ab:----------------|----------------|2---------2-----|----------------|
Eb:0-------0-2-4-0-|5-------5-4-2---|------------2-0-|--0-0---0-2-4-0-|

Gb:----------------|----------------|----------------|----------------|
Db:----------------|----------------|----------------|----------------|
Ab:0---------0-2---|----------------|----------------|----------------|
Eb:--------------0-|----------4-5-2-|7---5-7-----7---|5-7-----7-------|

Gb:----------------|----------------|----------------|----------------|
Db:----------------|----------------|----------------|----------------|
Ab:----------------|----------------|2---------2-----|----------------|
Eb:0-------0-2-4-0-|5-------5-4-2---|------------2-0-|--0-0---0-2-4-0-|

        Last time go into outro here:
Gb:----------------|----------------|----------------|----------------|
Db:----------------|----------------|----------------|----------------|
Ab:0---------0-2---|----------------|----------------|----------------|
Eb:--------------0-|----------4-5-2-|7---5-7---5-7---|--5-5--5--------|


Verse 2

Gb:----------------|----------------|----------------|----------------|
Db:----------------|----------------|----------------|----------------|
Ab:----------------|----------------|----------------|----------------|
Eb:7-7-7-7-7-7-7-7-|7-7-7-7-7-7-7-7-|5-5-5-5-5-5-5-5-|5-5-5-5-5-5-5-5-|

Gb:----------------|----------------|----------------|----------------|
Db:----------------|----------------|----------------|----------------|
Ab:----------------|----------------|----------------|----------------|
Eb:0-0-0-0-0-0-0-0-|5-5-5-5-5-4-2-2-|7---5-7-----7---|5-7-----7---5-6-|

Gb:----------------|----------------|----------------|----------------|
Db:----------------|----------------|----------------|----------------|
Ab:----------------|----------------|----------------|----------------|
Eb:7-7-7-7-7-7-7-7-|7-7-7-7-7-7-7-7-|5-5-5-5-5-5-5-5-|5-5-5-5-5-5-5-5-|

Gb:----------------|----------------|----------------|----------------|
Db:----------------|----------------|----------------|----------------|
Ab:----------------|----------------|----------------|----------------|
Eb:0-0-0-0-0-0-0-0-|5-5-5-5-5-4-2-2-|7---5-7-----7---|5-7-----7-------|


Bridge 2

Gb:----------------|----------------|----------------|----------------|
Db:----------------|----------------|----------------|----------------|
Ab:----------------|------------5-6-|7-7-5-7-----7-7-|----------------|   
Eb:7-7-5-7-----7-7-|5-7-----7-7-----|----------------|5-5-----5-5-5-6-|

Gb:----------------|----------------|----------------|----------------|
Db:----------------|----------------|----------------|----------------|
Ab:----------------|----------------|----------------|----------------|
Eb:7-7-5-7-----7-7-|5-7-----7-7-5-7-|----7-7-5-7-----|7---5-7---5-7---|


Outro

Gb:----------------|----------------|----------------|----------------|
Db:----------------|----------------|----------------|----------------|
Ab:----------------|-/1414141412----|----------------|-/1414141412----|
Eb:7---5-7---5-7---|------------1412|7---5-7---5-7---|------------1412|

Gb:----------------|----------------|----------------|----------------|
Db:----------------|----------------|----------------|----------------|
Ab:----------------|-/1414141412----|----------------|----------------|
Eb:7---5-7---5-7---|------------1412|7-----7-----0---|----------------|
				 let ring

Song Order

Intro
Bridge 1
Verse 1
Chorus
Main riff
Verse 2
Chorus
Main Riff
Bridge 2
Last Chorus
Outro
Show more