• Song:

    The Streets

  • Artist:

    The Wolves

THE STREETS
BY THE WOLVES


INTRO (4X):

E-------------------------------------------------
B-------------------------------------------------
G--7--------3------------------------------------
D--7-(8X)---3-(8X)---5--------7------------------
A--5--------1--------5-(8X)---7-(8X)------------
E--------------------3--------5------------------

VERSE (2X):

E-------------------------------------------------
B-------------------------------------------------
G--7--------4---------7--------------------------
D--7-(8X)---4-(8X)----7-(8X)---4-----------------
A--5--------2---------5--------4-(8X)-----------
E------------------------------2-----------------

PRE-CHORUS (2X):

E-------------------------------------------------
B-------------------------------------------------
G-------------------------------------------------
D---7---------4----------------------------------
A---7-(8X)----4-(8X)----------------------------
E---5---------2----------------------------------

CHORUS (4X):

E-------------------------------------------------
B-------------------------------------------------
G--4---------------------------------------------
D--4-(8X)----5-------4---------------------------
A--2---------5-(4X)--4-(4X)---------------------
E------------3-------2--------------------------

THEN PLAY THE VERSE
THEN PLAY THE PRE-CHORUS
THEN THE CHORUS

THEN THE SOLO:(2x)

E-------------------------------------------------
B-------------------------------------------------
G-----(4x)-------------------------(4x)-----------
D-------------------------------------------------
A--0-2-0-3-0-5-0-3-0-2--------0-3-0-5-0-7-0-5-0-3-
E-------------------------------------------------


END ON THIS:

D--2-------
A--2-------
E--0-------

LYRICS:

the streets are a hard place for a kid to grow
learning more than what he is supposed to know
from weapons that kill like guns and knives
to drugs that can screw up his life

what's a little boy supposed to do

mike would like to have a gun
he thinks he'll be cool by owning one
but what he doesn't realize 
is he could take somebody's life

mike's dad tries to tell him what's right and what's wrong
but he doesn't care and just wants to belong
it was only a matter of time
before little mike joined a life of crime

he doesn't know what he's doing 

mike would like to have a gun
he thinks he'll be cool by owning one
but what he doesn't realize 
is he could take somebody's life

now guess what! mike has been shot
oh my god, who would’ve thought
and now he’s dead, but no one shows
up at his funeral, 'cuz no one knows
Show more