• Song:

    Let's Dance To Joy Division

  • Artist:

    The Wombats

Tabbed by: jaronthebassist

                                      Lets Dance To Joy Division                                       


                                                                                            The Wombats
Bass



     W                   W                   W                   W                   W                 
G||-------------------|-------------------|-------------------|-------------------|-------------------|
D||-------------------|-------------------|-------------------|-------------------|-------------------|
A||-------------------|-------------------|-------------------|-------------------|-------------------|
E||-------------------|-------------------|-------------------|-------------------|-------------------|


  E  E  E  S E  S E  E  E     E  E  E  S E  S E  E  E     E  E  E  S E  S E  E   E   
---------------------------|-----8-----8----8----------|----------------------------|
-----9-----9------9-----9--|------------------------8--|-----7-----7------7-----11--|
---------------------------|--6-----6----6----6--------|----------------------------|
--7-----7----7--7----7-----|---------------------6-----|--5-----5----5--5----9------|


  E  E  E  E  E   E   E   E     W                   H.           Q       W                 
-----9-----9-----11------13--|-------------------|--------------------|-------------------|
-----------------------------|-------------------|--------------------|-------------------|
--7-----7-----9------11------|-------------------|--6-----------------|-------------------|
-----------------------------|--7----------------|---------------6----|--5----------------|


                                                   |----3----|                         
  W                   W                   H        Q    Q    Q       W                 
-------------------|-------------------|--------------------------|-------------------|
-------------------|-------------------|--------------------------|-------------------|
-------------------|-------------------|--6--------6----4----6----|--9----------------|
--9----------------|--7----------------|--------------------------|-------------------|


   E   E   E   E  E  E  E  E      E   E   E   E  E  E  Q       E  E  E  E  E  E  E  E   
------------------------------|-----------------------------|--------------------------|
------------------------------|-----------------------------|--------------------------|
--11--11--11--11--7--7--7--7--|--11--11--11--11--7--7--7----|--------------------------|
------------------------------|-----------------------------|--7--7--7--7--7--7--7--7--|


  E  E  E  E  E  E  E.  S    E  E  E  E  E  E  E  E     E  E  E  E  E  E  E  E   
--------------------------|--------------------------|--------------------------|
--------------------------|--------------------------|--------------------------|
--------------------------|--------------------------|--------------------------|
--2--2--2--2--2--2--4---4-|--5--5--5--5--5--5--5--5--|--4--4--4--4--0--0--4--4--|


  E  E  E  E  E  S E.  E      E  E  E  E  E  E  E.  S    E  E  E  E  E  E  E  E   
---------------------------|--------------------------|--------------------------|
---------------------------|--------------------------|--------------------------|
-----------------6-7---L\--|--------------------------|--------------------------|
--7--7--7--7--9------------|--2--2--2--2--2--2--4---4-|--5--5--5--5--5--5--5--5--|


  E  E  E  E  E  E  E  E     E  E  E  E  Q    Q       E  E  E  S E  S E  E  E   
--------------------------|------------------------|---------------------------|
--------------------------|------------------------|-----9-----9------9-----9--|
--------------------------|------------------------|---------------------------|
--4--4--4--4--0--0--4--4--|--0--0--4--4--0----4----|--7-----7----7--7----7-----|


  E  E  E  S E  S E  E  E     E  E  E  S E  S E  E   E     E  E  E  E  E   E   E   E   
-----8-----8----8----------|----------------------------|-----9-----9-----11------13--|
------------------------8--|-----7-----7------7-----11--|-----------------------------|
--6-----6----6----6--------|----------------------------|--7-----7-----9------11------|
---------------------6-----|--5-----5----5--5----9------|-----------------------------|


  W                   W                   W                   W                 
-------------------|-------------------|-------------------|-------------------|
-------------------|-------------------|-------------------|-------------------|
-------------------|--6----------------|-------------------|-------------------|
--7----------------|-------------------|--5----------------|--9----------------|


  E  S E  S E  E  S E  S E     E  S E  S E  E  S E  S E     E   S E  S  E  E   S E  S  E   
----------------------------|-----8------8-----8------8--|-----11------11-----11------11--|
-----9------9-----9------9--|----------------------------|--------------------------------|
----------------------------|--6----6--6----6----6--6----|--9-----9--9-----9-----9--9-----|
--7----7--7----7----7--7----|----------------------------|--------------------------------|


   E   E   E   E  E  E  E  E      E   E   E   E  Q    Q       E  E  E  E  E  E  E  E   
------13------13-----9-----9--|------13------13------------|--------------------------|
------------------------------|----------------------------|--------------------------|
--11------11------7-----7-----|--11------11----------------|--------------------------|
------------------------------|------------------0---------|--7--7--7--7--7--7--7--7--|


  E  E  E  E  E  E  E.  S    E  E  E  E  E  E  E  E     E  E  E  E  E  E  E  E   
--------------------------|--------------------------|--------------------------|
--------------------------|--------------------------|--------------------------|
--------------------------|--------------------------|--------------------------|
--2--2--2--2--2--2--4---4-|--5--5--5--5--5--5--5--5--|--4--4--4--4--0--0--4--4--|


  E  E  E  E  E  S E.  E      E  E  E  E  E  E  E.  S    E  E  E  E  E  E  E  E   
---------------------------|--------------------------|--------------------------|
---------------------------|--------------------------|--------------------------|
-----------------6-7---L\--|--------------------------|--------------------------|
--7--7--7--7--9------------|--2--2--2--2--2--2--4---4-|--5--5--5--5--5--5--5--5--|


  E  E  E  E  E  E  E  E     E  E  E  E  Q    Q       W                   W                 
--------------------------|------------------------|-------------------|-------------------|
--------------------------|------------------------|-------------------|-------------------|
--------------------------|------------------------|-------------------|-------------------|
--4--4--4--4--0--0--4--4--|--0--0--4--4--0----4----|-------------------|-------------------|


  W                   W                   E  E  E  E  E  E  E  E     E  E  E  E  E  E  E  E   
-------------------|-------------------|--------------------------|--------------------------|
-------------------|-------------------|--------------------------|--------------------------|
-------------------|-------------------|--------------------------|-----6-----6-----6-----6--|
-------------------|-------------------|-----7-----7-----7-----7--|--------------------------|


  E  E  E  E  E  E  E  E     E  E  E  E  E  E  E  E       E  E  E  E  E  S E  S E   
--------------------------|--------------------------||----------------------------|
--------------------------|--------------------------||*-----9-----9-----9------9--|
-----9-----9-----9-----9--|--------------------------||*---------------------------|
--------------------------|-----9-----9-----9-----9--||---7-----7-----7----7--7----|


  E  E  E  E  E  S E  S E     E   E  E   E  E   S E  S  E     E   E  E   E  E   S E  S  E     
-----8-----8-----8------8--|-----11-----11-----11------11--|--------------------------------||
---------------------------|-------------------------------|-----11-----11-----11------11--*||
--6-----6-----6----6--6----|--9------9------9-----9--9-----|-------------------------------*||
---------------------------|-------------------------------|--9------9------9-----9--9------||


   E   E   E   E  E  S E  S E      E   E   E   E  Q    Q         E  E  E  E  E  E  E  E   
------13------13-----9------9--|------13------13------------||---------------------------|
-------------------------------|----------------------------||*--------------------------|
--11------11------7----7--7----|--11------11----------------||*--------------------------|
-------------------------------|------------------0---------||---7--7--7--7--7--7--7--7--|


  E  E  E  E  E  E  E  E     E  E  E  E  E  E  E  E     E  E  E  E  E  E  E  E     
--------------------------|--------------------------|---------------------------||
--------------------------|--------------------------|--------------------------*||
--------------------------|--------------------------|--------------------------*||
--2--2--2--2--2--2--2--2--|--5--5--5--5--5--5--5--5--|--0--0--0--0--0--0--0--0---||


  E  E  E  E  E  E  E  E     E  E  E  E  E  E  E.  S    E  E  E  E  E  E  E  E   
--------------------------|--------------------------|--------------------------|
--------------------------|--------------------------|--------------------------|
--------------------------|--------------------------|--------------------------|
--7--7--7--7--7--7--7--7--|--2--2--2--2--2--2--4---4-|--5--5--5--5--5--5--5--5--|


  E  E  E  E  E  E  E  E     E  E  E  E  E  S E.  E      E  E  E  E  E  E  E.  S  
--------------------------|---------------------------|--------------------------|
--------------------------|---------------------------|--------------------------|
--------------------------|-----------------6-7---L\--|--------------------------|
--4--4--4--4--0--0--4--4--|--7--7--7--7--9------------|--2--2--2--2--2--2--4---4-|


  E  E  E  E  E  E  E  E     E  E  E  E  E  E  E  E     E  E  E  E  Q    Q       W                 
--------------------------|--------------------------|------------------------|-------------------|
--------------------------|--------------------------|------------------------|-------------------|
--------------------------|--------------------------|------------------------|-------------------|
--5--5--5--5--5--5--5--5--|--4--4--4--4--0--0--4--4--|--0--0--4--4--0----4----|-------------------|


  W                   W                   W                   Q    H.             
-------------------|-------------------|-------------------|--------------------||
-------------------|-------------------|-------------------|--------------------||
-------------------|-------------------|-------------------|--------------------||
-------------------|-------------------|-------------------|--7-----------------||




Duration Legend
---------------
W - whole
H - half
Q - quarter
E - 8th
S - 16th
T - 32nd
X - 64th
. - note dotted
|-n-|  - n-tuplets


Tablature Legend
----------------
L - tied note
x - dead note
g - grace note
(n) - ghost note
> - accentuded note
NH - natural harmonic
AH - artificial harmonic
TH - tapped harmonic
SH - semi harmonic
PH - pitch harmonic
h - hammer on
p - pull off
b - bend
br - bendRelease
pb - preBend
pbr - preBendRelease
brb - bendReleaseBend
\n/ - tremolo bar dip
\n - tremolo bar dive
-/n - tremolo bar Release up
/n\ - tremolo bar inverted dip
/n - tremolo bar return
-\n - tremolo bar Release down
S - shift slide
s - legato slide
/ -  slide into from below or out of upwards
\ -  slide into from above or out of downwards
~ - vibrato
W - wide vibrato
tr - trill
TP - tremolo picking
T - tapping
S - slap
P - pop
< - fade in
^ - brush up
v - brush down
Show more