• Song:

    All My Only Dreams

  • Artist:

    The Wonders

ALL MY ONLY DREAMS 
Performed by The Wonders 
Written by Scott Rogness and R. Elias. 
------------------------------------------------------ 
Intro:  D  Bm  G  A  D  Bm  Em  (A  C#+) D 
      Bm            G 
Every night I pray 
              A             D 
I'll have you here someday 
                Bm            G 
I'll count the stars tonight 
              (A      C#+)    F#m 
And hope with all my might 
            Bm            G 
And when I close my eyes 
                E           D 
You'll be right by my side 
           D+            Bm 
If I could only have one wish 
              D7                  G 
You'd be the girl whose lips I'd kiss 
       A    D       (Bb  A) 
All my only dreams 
   D        Bm        G        A           D        Bm       
E :---2-2-2--0------|------0------|---2-2-2-2-0------| 
B :---------3----|---3-3-3---2-0------|---------3----| 
G :--------------|--------------2----|---------------| 
D :----------------|----------------|----------------| 
A :----------------|----------------|----------------| 
E :----------------|----------------|----------------| 
   G        A       C#+     Fm 
E :-------------0-2-3-5-7-8|9---------------| 
B :---3-3-3-2-3------------|----------------| 
G :------------------------|----------------| 
D :------------------------|----------------| 
A :------------------------|----------------| 
E :------------------------|----------------|  
            Bm            G 
And when I close my eyes 
                E           D 
You'll be right by my side 
           D+            Bm 
If I could have just one request 
            D7         G 
Stay with me girl I confess 
       A    D       Gm 
All my only dreams 
                      D     E 
Every waking hour it seems 
                       Em     (A  C#+)  D 
I only have you in my dreams 
          Bm              G 
So every night I'll pray 
               A            D 
I'll have you here one day 
                Bm            G 
I'll count the stars tonight 
              (A  C#+)           F#m 
And hope with all my might 
            Bm            G 
And when I close my eyes 
                E           D 
You'll be right by my side 
           D+            Bm 
If I could have just one request 
            D7          G 
Stay with me girl I confess 
       A    D    Bm   G   Gm   D 
All my only dreams 
------------------------------------------------------ 
CHORDS USED 
D   x00232 
Bm  224432 
G   355433 
A   x02220 
C#+ xx3221 
Bb  113331 
F#m 244222 
E   022100 
Em  022000 
D+  x00332 
D7  x00212 
Gm  355333
Show more