• Song:

    I Need You that Thing You Do

  • Artist:

    The Wonders

C 
E :----1---3-0---3-|----3-0---------| 
B :----------------|3-----1---------| 
G :----------------|----------------| 
D :----------------|----------------| 
A :----------------|----------------| 
E :----------------|----------------| 
 
C                                                G 
I never thought my life would end up quite this way 
               C                                  G 
sometimes it's hard to figure out what I should say 
          Fm                      C 
I tried alone to mend this broken heart 
Am      Dm  G              C 
I need you that thing you do 
[Intro Riff] 
C                                          G 
When we're apart I find it very hard to smile 
              C                                 G 
you know that other girls have never been my style 
                Fm                               C 
well there's a feeling that I get when I'm with you 
Am      Dm  G               C 
I need you that thing you do 
[Intro Riff] 
         G#                Eb            Gm7      F 
I could search around the world only to find 
          G#             Eb                 F 
the only thing I need is you right by my side 
   C                G                 C                
E :----------------|----------------|----------------| 
B :----------------|----------------|----------------| 
G :----------------|----------------|----------------| 
D :------2-3-2-0---|0---------------|------2-3-2-0---| 
A :3-3-3---------3-|----------------|--3-3---------3-| 
E :---------------|-------3-3-------|----------------| 
   G                         Fm 
E :-------------------------|----------------| 
B :-------------------------|----------------| 
G :------------------------0|----------------| 
D :0-----------------0-2-3--|3---------------| 
A :---3-2--0---0-2-3--------|----------------| 
E :----------3--------------|----------------| 
           Fm                              C 
there's a feeling that I get when I'm with you 
Am  Dm  G              C 
oh     that thing you do 
         G#                Eb            Gm7       F 
I could search around the world only to find 
         G#                Eb              F 
the only thing I need is you right by my side 
C                                                G 
I never thought my life would end up quite this way 
                C                                G 
sometimes it's hard to figure out what I should say 
         Fm                        C 
I tried alone to mend this broken heart 
Am      Dm  G             Am   D 
I need you that thing you do 
      F                 Bb   F   C 
need you that thing you do
Show more