• Song:

    Little Wild One

  • Artist:

    The Wonders

LITTLE WILD ONE 
Performed by The Wonders 
Written by D. Gibbs, S. Hurley and F. Elringham. 
------------------------------------------------------ 
E      A    E   (E4 E) 
Little wild one 
          C#m  F#+  B   (B4 B) 
My little wi---ld  one 
     A             Am 
Oh I love, my girlfriend 
         E             C# 
But when I need a wild time 
       F#m                 B        E   (E4 E)     
Little wild one, I'll come back to you 
A  
All the girls in school 
     B                       E   (E4 E) 
Were never quite as cool as you 
A 
They were all tease and talk 
     B                            E   (E4 E) 
and you were all please and let's do 
C#m                   F# 
With them, I feel like I'm wasting my time 
     A                         B 
When you make me feel like I'm losing my mind 
E      A    E   (E4 E) 
Little wild one 
          C#m  F#+  B   (B4 B) 
My little wi---ld  one 
     A             Am 
Oh I love, my girlfriend 
         E             C# 
But when I need a wild time 
       F#m                 B        E   (E4 E)     
Little wild one, I'll come back to you 
[Solo: A  B  E  (E4 E) - Twice] 
         A                B                E        E4 
E :-----------|------------|------------|------------| 
B :----------|----------|----------|0-------0--------| 
G :--------|--1---------|--1---------|---------2--1-2| 
D :------2---|4---4-2-------2-|4---4-2-------|-------| 
A :------4------|------4------|------4---2---|-------| 
E :-----------|------------|------------|------------| 
   E            A             B             E       E4 
E :-----------|------------|------------|------------| 
B :-----------|------------|------------|------------| 
G :1----------|--1----------|--1----------|----------| 
D :-------2|4---4-2-------2-|4---4-2-------|2--------| 
A :-----4--|-----4-----|-----4---2---|-----4---2-----| 
E :-----------|-----------|-----------|-----------4--| 
   E 
E :----------------| 
B :----------------| 
G :----------------| 
D :----------------| 
A :----------------| 
E :0---------------| 
      C#m                   F# 
With them, I feel like I'm wasting my time 
     A                         B 
When you make me feel like I'm losing my mind 
E      A    E   (E4 E) 
Little wild one 
          C#m  F#+  B 
My little wi---ld  one 
     A             Am 
Oh I love, my girlfriend 
         E             C# 
But when I need a wild time 
       F#m              B 
Little wild one, I'll come back 
       G#m                 C#m 
Little wild one, I'll come back 
       F#m                 B      B    Am   E7 
Little wild one, I'll come back - to - you..... 
------------------------------------------------------ 
CHORDS USED 
  E  A  B  C#m  F#m  C  E4  B4  G#m  C#  E7   Am   F#+ 
                                                       
E---0---0---2---4---2---0---0---2---4---4---4---0---2- 
B---0---2---4---5---2---1---0---5---4---6---4---1---2- 
G---1---2---4---6---2---0---2---4---4---6---4---2---3- 
D---2---2---4---6---4---2---2---4---6---6---2---2---2- 
A---2---0---2---4---4---3---2---2---6---4---2---0---4- 
E---0---X---2---4---2---3---0---2---4---4---X---X---2- 
------------------------------------------------------
Show more