• Song:

    That Thing You Do

  • Artist:

    The Wonders

  • Album:

    That Thing You Do (moti...

The Wonders-?That Thing You Do?
Just luv the movie?.
Dis is a really cool song guys n its easy to play?.its real snappy
Dis is also my 1st tab n I tink its a 100% correct?ENJOY!!!


INTRO:
----------
   E                     Am    
E------------^---------------------
B--------4---2---0--------1---------
G--1----------------0-----2---------
D--2----------------------2---------
A--2--------------------------------
E-----------------------------------

There?s a little riff played when the chord E is played. But if ure playin dis wif juz one guitar den juz play e chords?

E-chord RIFF:
----------------

E----------------------------
B---------------------------
G---------------------------
D---------------------------
A---------------2--2--4----
E--0--0--4--4--------------

VERSE 1:
------------
 E   A        B         E
You doin that thing you do
 A          B       Cm           F#   
Breaking my heart into a million pieces
 F#m            A   B
Like you always do
     E    A         B      E
And you, don?t mean to be cruel
 A           B    Cm             F#
You?ve never even knew about the heartache
 F#m           A      B
I?ve been goin through

CHORUS:
-------------
 Cm                   F#
Well I try n try to forget you girl
    E          E7       A   Am       
But its just so hard to do
  E           Am               E   Am
Everytime you do that thing you do  

(repeat verse n chorus)

BRIDGE:
------------
 A
I don?t ask a lot girl
 Cm
But I know one thing?s for sure
 F#
It?s the love I haven?t got girl
   B                     C      B
And I just can?t take it anymore

GUITAR SOLO:
----------------------

E-----------------------------------------
B---------^-------^--------^--------------
G---9--9--9-------9--11/12?9--------^-----
D--------------11---------------11--9-----
A-----------------------------------------
E-----------------------------------------

E------------------------------------------------
B--------^------^--------^----------^-------^----
G--9--9--9------9?11/12--9----------9-------9----
D------------11---------------11--------11-------
A------------------------------------------------
E------------------------------------------------

E----------------------------------------------------------------------------
B---------^-----------^---------^-----------^---------^----------------------
G--11/12--9--11-------9--11/12--9--11-------9--11/12--9---------^-------^----
D-----------------11--------------------11-------------------11--9--10--9----
A----------------------------------------------------------------------------
E----------------------------------------------------------------------------

(repeat verse)

OUTRO:
------------
 Cm                      F#
Cause it hurts me just to see you go
 E          E7      A    Am
Around with someone new
 E                       Am
And if I know you you?re doin that thing 
 E            Am
everyday just doin that thing
 E               B                   A    Am
I can?t take you doin that thing you do


End RIFF:
--------------
                 Am       E
E----------------------------------
B-----------------1----------------
G-----------------2-------1--------
D-----------------2-------2--------
A--------2----------------2--------
E--0--4-----0----------------------






*CHORD LEGEND:
-------------------------
   E     A     B    Cm    F#    F#m    E7     Am    C
E--------5-----7----3------2-----2------------------8----
B--------5-----7----3------2-----2-------------1----8----
G--1-----6-----8----5------3-----2------1------2----9----
D--2-----7-----9----5------4-----4------0------2----10---
A--2-----7-----9----3------4-----4------2-----------10---
E--------5-----7----3------2-----2------------------8----


^ = up pluck
/ = slide


( submitted by Aizal Icekool )mail me at aizkool@hotmail.com for any ques...
Show more