• Song:

    The Wonders - Do That Thing You Do

  • Artist:

    The Wonders

Intro:                 Solo:
E|---4----------------|--------------------------------------------------------------|
B|------7--5----------|---5--5------5--7b---5---------------5--5------5--7b--5------5|
G|------------4--5----|---------6b-------------6b--4~~------------6b------------6b---|
D|--------------------|--------------------------------------------------------------|
A|--------------------|--------------------------------------------------------------|
E|--------------------|--------------------------------------------------------------|

E|-----------------------------------------------------------------|
B|------5--7b--5--7b----5--7b--5--7b----5--7b--5-----5-------------|
G|---6--------------------------------------------6-----5-----4~~~~|
D|-----------------------------------------------------------------|
A|-----------------------------------------------------------------|
E|-----------------------------------------------------------------|

Riff:
E--------------------------
B--------------------------
G--------------------------
D------------------------2-
A---------------2--2--4---
E--0--0--4--4--------------


[Intro:] E Am

  E      A    B       E
You do that thing you do
  A           B   C#m             F#
Breaking my heart into a million pieces
F#m             Am  B
Like you always do

  E  A         B       E
You don't mean to be cruel
     A     B     C#m            F#
You never even knew about the heartache
 D                 B
I've been going through

       C#m               F#
Well I try and try to forget you girl
         E       E7      A Am
But its just so hard to do
E             Am                E   B
Everytime you do that thing you do

I know all the games you play
And I'm gonna find a way to let you know that
You'll be mine some day

'Cause we could be happy can't you see
If you only let me be the one to hold you
And keep you here with me

'Cause I try and try to forget you girl
But its just so hard to do
Everytime you do that thing you do

A
I don't ask a lot girl (I don't ask a lot girl)
C#m
But I know one thing's for sure (know one thing's for sure)
F#
It's the love I haven't got girl
      B                  C       B
And I just can't take it anymore

Solo

'Cause we could be happy can't you see
If you only let me be the one to hold you
And keep you here with me

          C#m                 F#
'Cause it hurts me so just to see you go
  E           E7     A Am
Around with someone new
       E                 Am
And if I know you you're doing that thing
E              Am
Every day just doing that thing
E                B                     A  Am  E
I can't take you doing that thing you do
Show more