• Song:

    Untitled

  • Artist:

    The World Of Hell On Earth

Palm Mute = *
Wammy/Vibrato = ~

Intro
|------------------------------------|
|------------------------------------|
|------------------------------------|x4
|------------------------------------|
|~~-13-13-13--16-16-16--9-9-9--8-8-8-|
|~~-11-11-11--14-14-14--7-7-7--6-6-6-|

Verse Prt 1
|------------------|
|------------------|
|------------------|x3
|------------------|
|-555-999-777-555--|
|-333-777-555-555--|
  *** *** *** ***
Verse Prt 2
|------------------|
|------------------|
|------------------|x3
|------------------|
|-555-999-777-555--|
|-333-777-555-555--|
  

Chorus
|----------------------|
|----------------------|
|----------------------|x4
|-999--11-11-11---777--|
|-999---9--9--9---777--|
|-777---9--9--9---555--|


|-----------------------------------|
|-----------------------------------|
|-----------------------------------|x4
|-----------------------------------|
|-13-13-13--16-16-16--9-9-9--8-8-8-~|
|-11-11-11--14-14-14--7-7-7--6-6-6-~|
Show more