• Song:

    Down Town Usa

  • Artist:

    The X Crums

TABB'D !t

Tabber: Wayne White

Band: The X Crums
Track Name: Down Town USA
Album: Don't waste your Crums!

Date: 10/02/04
Updated: Chorus, Verse 14/02/04
Updated Solo: (TBA)

Tuning: Standard (EADGBE)

Guitar Notation Legend:

^=Quarter Bend=Bend the string up a quarter of the note.
^^=Half Bend=Bend the string up a half of the note.
^^^^=Full Bend=Bend the string into the next full note.
/=Slide Up=Hit the string with pick hand, moving hand up to required fret.
=Slide Down=Hit the string with pick hand and slide hand down to required fret.
P.M-------=Palm Mute=Rest the pick hand on the strings just before the bridge.
H=Hammer On=Strike the first (lower) note with one finger then strike the higher note (on the same string) with another
finger without picking it.
P=Pull-Off=Place both fingers on the notes to be sounded. Strike the first note, and without picking, pull the finger
off to sound the second (lower) note.
tr^^^^^^^^^^^^=Trill=Very Rapidly alternate between the notes, indicated by continuous hammering and pull-offs while picking.
X=Muting=Rest your finger on the string slightly so that it makes a muffled sound.
/=DownStroke=Strike Downwards
/=UpStroke=Strike Upwards
[11]=Vibrato=The note is vibrated by rapidly bending and releasing on the fret.




Guitar 1

Intro
   <4SECONDS> 4      4	    4	   4      4     4     0  0
   B      D      B      A      B      D      E      D  D  B    Barre Chords
						    / / /
E|--7------5------7------5------7------5------7------5-5--7---|
B|--7------6------7------5------7------6------8------6-6--7---|
G|--8------7------8------6------8------7------9------7-7--8---|   
D|--9------7------9------7------9------7------9------7-7--9---|  x2
A|--9------5------9------7------9------5------7------5-5--9---|
E|--7-------------7------5------7-------------------------7---|


Guitar 1

Verse 1
          /          /
E|--7-7-7--5----7-7-7--5-------|
B|--7-7-7--6----7-7-7--5-------|
G|--8-8-8--7----8-8-8--6-------| 
D|--9-9-9--7----9-9-9--7-------|  x3
A|--9-9-9--5----9-9-9--7-------|
E|--7-7-7-------7-7-7--5-------|


Guitar 1

Verse 2
	        
E|--------------------------------------------------|
B|--------------------------------------------------|
G|--------------------------------------------------|
D|--------------------------------------------------|
A|--7-7-7---7-7-7-7-7---7-7-7-7-7---9-9-9-9-9-------|
E|--9-9-9---7-7-7-7-7---5-5-5-5-5---7-7-7-7-7-------|

Guitar 2

Verse 1
                
E|-----------------------------|
B|-----------------------------|
G|-----------------------------| 
D|---------7-------------------|  x3
A|--9-9-9--5----9-9-9--7-------|
E|--7-7-7-------7-7-7--5-------|

Guitar 2

Verse 2
	 	     
E|--------------------------------------------|
B|--------------------------------------------|
G|--------------------------------------------|
D|---------7----9-9-9--7----------------------|
A|--9-9-9--5----7-7-7--5----9-9----7-7----9---|
E|--7-7-7-------------------7-7----5-5----7---|


Guitar 1

Solo 1

E|--------------------------------------------|
B|------10------10--------------[11]----------|
G|--12------12------12--10--12----------------|
D|--------------------------------------------|X2
A|--------------------------------------------|
E|--------------------------------------------|

Solo 1 Part 2

E|--------------------------------------------|
B|----9/15----15^^^^--------------------------|
G|--------------------------------------------|
D|--------------------------------------------|
A|--------------------------------------------|
E|--------------------------------------------|

Guitar 2

Chorus

E|---------------------------------------------------------|
B|--------5------5--------5-----5--------5-------7------7--|
G|----7-7----7-7------5-5---5-5------3-3-----5-5----5-5----|
D|--0---------------0--------------0-------0---------------|
A|---------------------------------------------------------|X2
E|---------------------------------------------------------|



Guitar 1

Bridge

E|--------------------------------------|
B|--------------------------------------|
G|--------------------------------------|
D|--------------------------------------|X2
A|------7--------7---------7----------9-|
E|--9-9---9---7-7--7---5-5---5---7-7----|


Guitar 2

Bridge Accompaniment

   Tr^^^^^ 1Sec
E|----------------------------------------------------------|
B|----------------------------------------------------------|
G|----------------------------------------------------------|
D|----------------------------------------------------------|
A|--7---(9)---9--------7------------------------------------|
E|---------------9--7------[5]-----[7]----[9]----[5]----[7]-|


Guitar 2

Outro

E|-------------------------------|
B|-------------------------------|
G|-------------------------------|
A|---7------7------5------9------|X2
E|---9------7------7------7------|





Intro
Verse 1
Verse 2
Chorus
Verse 1
Solo (Working On)
Verse 2
Bridge+Accompaniment
Chorus
Verse 2
Chorus
Outro
Show more