• Song:

    Think It Over

  • Artist:

    The X Crums

TABB'D !t

Tabber: Wayne White

Band: The X Crums
Track Name: Think It Over
Album: Don't waste your Crums!

Date: 10/02/04
Updated: Chorus 14/02/04|23/02/04, Verse 1&2 14/02/04
Solo 1&2, Bridge 23/02/04

Tuning: Standard (EADGBE) 

Guitar Notation Legend:

^=Quarter Bend=Bend the string up a quarter of the note.
^^=Half Bend=Bend the string up a half of the note.
^^^^=Full Bend=Bend the string into the next full note.
(^^){=Bend and Release=Bend the string up a chosen note and then release back to origin.
/=Slide Up=Hit the string with pick hand, moving hand up to required fret.
=Slide Down=Hit the string with pick hand and slide hand down to required fret.
P.M-------=Palm Mute=Rest the pick hand on the strings just before the bridge.
H=Hammer On=Strike the first (lower) note with one finger then strike the higher note (on the same string) with another
finger without picking it.
P=Pull-Off=Place both fingers on the notes to be sounded. Strike the first note, and without picking, pull the finger
off to sound the second (lower) note.
tr~~~~~~~~~=Trill=Very Rapidly alternate between the notes, indicated by continuous hammering and pull-offs while picking.
X=Muting=Rest your finger on the string slightly so that it makes a muffled sound.
/=DownStroke=Strike Downwards
/=UpStroke=Strike Upwards
[11]=Vibrato=The note is vibrated by rapidly bending and releasing on the fret.




Guitar 1

Intro (Ska Progression- Numerous)
                
E|--x-7-x-7-x-7-x-7---x-7-x-7-x-7-x-7---x-7-x-7-x-7-x-7---x-9-x-9-x-9---x-8---x-7--|
B|--x-8-x-8-x-8-x-8---x-7-x-7-x-7-x-7---x-8-x-8-x-8-x-8---x-9-x-9-x-9---x-8---x-7--|
G|--x-7-x-7-x-7-x-7---x-7-x-7-x-7-x-7---x-9-x-9-x-9-x-9---x-9-x-9-x-9---x-8---x-7--| 
D|---------------------------------------------------------------------------------|
A|---------------------------------------------------------------------------------|
E|---------------------------------------------------------------------------------|
 [-:						      :-]

The chorus is the same as the intro, but with the descendo of chords at the end which is marked by the signs "[-: :-]"
Which is followed by another chord which is tabbed below.

E|--x-7-x-7-x-7-x-7-----|
B|--x-9-x-9-x-9-x-9-----|
G|--x-9-x-9-x-9-x-9-----| 
D|----------------------|
A|----------------------|
E|----------------------|

Which is played as one whole stave:

Guitar 1

Chorus 

E|--x-7-x-7-x-7-x-7---x-7-x-7-x-7-x-7---x-7-x-7-x-7-x-7---x-7-x-7-x-7-x-7-----|
B|--x-8-x-8-x-8-x-8---x-7-x-7-x-7-x-7---x-8-x-8-x-8-x-8---x-9-x-9-x-9-x-9-----|
G|--x-7-x-7-x-7-x-7---x-7-x-7-x-7-x-7---x-9-x-9-x-9-x-9---x-9-x-9-x-9-x-9-----|X2 
D|----------------------------------------------------------------------------|
A|----------------------------------------------------------------------------|
E|----------------------------------------------------------------------------|

Guitar 1

Verse 1 (Barre Chord Progression)

8 Times  3 Times 4 Times
E|--9------5-------5-------|
B|--11-----7-------6-------|
G|--11-----7-------7-------| 
D|--11-----7-------7-------|
A|--9------5-------5-------|X2
E|--9------5-------5-------|

Guitar 1

Verse 2 (Barre Chord Progression)

8 Times  2 Times 2 Times
E|--5-----5-------5-------|
B|--5-----6-------6-------|
G|--6-----7-------7-------| 
D|--7-----7-------7-------|
A|--7-----5-------7-------|x2
E|--5-----5-------5-------|


Guitar 2

Verse 1&2 (5th Chord Progression)

E|----------------------------------------------------------------------------------|
B|----------------------------------------------------------------------------------|
G|----------------------------------------------------------------------------------| 
D|----------------------------------------------------------------------------------|
A|------11-----11-----11-----11-----11--9-9-9-9-9-9-9-9--9--9--9--9--9--9--9--9-----|x3 (For each verse)
E|--9-9-9--9-9-9--9-9-9--9-9-9--9-9-9---0-0-0-0-0-0-0-0--11-11-11-11-11-11-11-11----|


Guitar 1

Solo 1
     [-:                   Pentatonic Sequence            :-]
E|---12-15-12-15-12---------------------------------------------------------------------------------|
B|------------------15---12-15-12-15-12-------------------------------------------------------------|
G|--------------------------------------14---12-14-12-14-12--------------12H14--14^^{---------------|
D|----------------------------------------------------------14---12H14------------------------------|
A|--------------------------------------------------------------------------------------------------|
E|--------------------------------------------------------------------------------------------------|

Guitar 2

Solo 2
								     tr~~~~5 Seconds
E|---15-15-12------------------------15--------15--121212--12-12-12-----------------------------|
B|-------------15-12-15--------12-12-12--12-12-12--0-0-0---15-15-15---14-12---9/15^^^^----------|
G|----------------------15^^--------------------------------------------------------------------|
D|----------------------------------------------------------------------------------------------|
A|----------------------------------------------------------------------------------------------|
E|----------------------------------------------------------------------------------------------|

Guitar 1

Bridge
					   
E|--------------------------------------------------------|
B|--------------------------------------------------------|
G|--------------------------------------------------------|
D|--------------------------------------------------------|
A|--11------------------------------9-----------------9---|
E|--9-------------------------------0-----------------11--|
    |                               |                 |
Guitar 2                            |                 |
    |				    |		      |
    | 				    |		      |
Bridge 	   			    |                 |
    |				    |		      |   
E|-------------------------------------------------------------------------|
B|-------------------------------------------------------------------------|
G|-------------------------------------------------------------------------|
D|-------------------------------------------------------------------------|
A|----5---5---5---5---5---5---5-------2---2---2---2-----2---2---2---2------|
E|--3---3---3---3---3---3---3---3---0---0---0---0-----4---4---4---4--------|

As the notes change, a 5th Chord is played which is written on top. I have lined it up up so that you can see when to play.
If this is done wrong and out of time, then the whole Bridge will not sound as good as its best. Pay a little bit of money
and get a metronome or clicker and practice to that. Maybe you could time how long the Bridge for guitar two is going to be
and set your own tempo. It doesn't matter either way wil sound good. I'd say about tempo of 145-160.


Intro
Verse 1
Verse 2
Chorus
Solo 1
Verse 2
Chorus
Solo 2
Bridge
Show more