• Song:

    Date With The Night

  • Artist:

    The Yeah Yeah Yeahs

  • Album:

    2003-04-14: Steve Lamac...

Riff 1
|---------------3 times this whole thing-----------------|

e:------------------------|--------------------------|
B:------------------------|--------------------------|
G:------------------------|--------------------------|
D:-----5h7-------0h2------|-----5h7-----0h2----------|
A:------------------------|--------------------------|
E:-0-0-------0-0----------|-0-0-----0-0--------------|


Riff 2

e:------------------------|--------------------------|
B:------------------------|--------------------------|
G:------------------------|--------------------------|
D:-7-7-7-7-7-7-7-7--------|-5-5-5-5-5-5-5-5----------|
A:-7-7-7-7-7-7-7-7--------|-5-5-5-5-5-5-5-5----------|
E:-5-5-5-5-5-5-5-5--------|-3-3-3-3-3-3-3-3----------|


Riff 1
|---------------3 times this whole thing-----------------|

e:------------------------|--------------------------|
B:------------------------|--------------------------|
G:------------------------|--------------------------|
D:-----5h7-------0h2------|-----5h7-----0h2----------|
A:------------------------|--------------------------|
E:-0-0-------0-0----------|-0-0-----0-0--------------|


Riff 3

e:------------------------|--------------------------|
B:------------------------|--------------------------|
G:-4-4-4-4-4-4-4-4--------|-2-2-2-2-2-2-2-2----------|
D:-4-4-4-4-4-4-4-4--------|-2-2-2-2-2-2-2-2----------|
A:-2-2-2-2-2-2-2-2--------|-0-0-0-0-0-0-0-0----------|
E:------------------------|--------------------------|



Riff 4

e:------------------------|--------------------------|
B:-0-0-0-0-0-0-0-0--------|-0-0-0-0-0-0-0-0----------|
G:-0-0-0-0-0-0-0-0--------|-0-0-0-0-0-0-0-0----------|
D:-2-2-2-2-2-2-2-2--------|-2-2-2-2-2-2-2-2----------|
A:-2-2-2-2-2-2-2-2--------|-2-2-2-2-2-2-2-2----------|
E:-0-0-0-0-0-0-0-0--------|-0-0-0-0-0-0-0-0----------|

Yet another quality song from Nick Zinner...
Show more