• Song:

    Pin

  • Artist:

    The Yeah Yeah Yeahs

  • Album:

    2003-08-24: Reading Fes...

Tuning is Drop D: DGCFAd

For the beginning of this song play this chord 16 times

d|----
A|-12-
F|----
C|-12-
G|----
D|----

At the end of the song this chord is played about 30 times

Verse

|----------------------------------------|
|-12-12-12-12-127-7-7-75-5-5-5-51-1-0-|
|-----------------------4-4-4-4-4-0-0-|
|-12-12-12-12-127-7-7-7-----------------|
|----------------------------------------|
|----------------------------------------|

|------------------------------------------|
|-12-12-12-12-127-7-7-75-5-5-5-58-8-8-8-|
|-----------------------4-4-4-4-47-7-7-7-|
|-12-12-12-12-127-7-7-7-------------------|
|------------------------------------------|
|------------------------------------------|

Chorus

|---------------------------------------------|-------------------------|
|---------------------------------------------|-------------------------|
|---------------------------------------------|-------------------------|
|---------------------------------------------|-------------------------|
|-12-14--12-14--12-14--12-14--5-5-5-5-5-5-5-5-|-5-5-5-5-12-12-12-12-12-|
|-12-14--12-14--12-14--12-14--5-5-5-5-5-5-5-5-|-5-5-5-5-12-12-12-12-12-|
  

solo after 1st verse

|----------------------------------------|
|-----------------------------17-17-17--|
|----------------------------------------|
|-2-2-2-2-2-2-2-2-12-12-12-12------------|
|----------------------------------------|
|----------------------------------------|
Show more