• Song:

    Rich

  • Artist:

    The Yeah Yeah Yeahs

  • Album:

    Fever To Tell

Yeah yeah yeahs
Fever to tell
Rich
Normal Tuning
(naked_marmaduke@hotmail.com)

Intro/1st guitar verse 

|------------------------------------------|
|------------------------------------5*-5*-| All harmonics
|---------------------5*-5*-----5*-5*------|
|------5*-5*---------------5*-5*-----------|
|-----------5*-5*--------------------------|
|-5*-5*----------5*-5*---------------------|

2nd guitar verse

|---------------------------------|
|---------------------------------|
|---------------------------------|
|---------------------------------|
|-----------------------------5-5-|
|-0-0-7-7-3-3-2-2-0-0-7-7-3-3-----|

Chorus

|------------------------------------------------------------------------->
|------------------------------------------------------------------------->
|------------------------------------------------------------------------->
|------------------------------------------------------------11-11-11-11-->
|-7-7-7-7-7-7-7-7-7-7-7-7-7-7-7-7-10-10-10-10-10-10-10-10-10-10-10-10-10-->
|------------------------------------------------------------------------->
  Continued..
 >---------------------------------------------------------------------|
 >---------------------------------------------------------------------|
 >---------------------------------------------------------------------|
 >-----------------------------------------------------------------7-7-|
 >-------------------------------------7-7-7-7-7-7-7-7-7-7-7-7-7-7-7-7-|
 >-7-7-7-7-7-7-7-7-5-5-5-5-10-10-10-10-----------------------------5-5-|

Pre-second chorus (im rich, like a hot noise. Rich rich rich...)

|---------------------------------------|
|-15-15-15-15-15-15-15-15-15-15-15-17---|
|-14-14-14-14-14-14-14-14-14-14-14-16---|
|---------------------------------------|
|---------------------------------------|
|-------------------------------------0-|
Show more