My Alarm Clock

This is a tab of my alarm clock
Its a crappy singing dog which is a rip of of the dog mutley of the cartoons
It also sings "How Much iIs That Doggy in the Window" but i can't be bothered tabbing that
If you have this alarm clock this is the first song it sings

G|-----------------------
D|--0-3-5-7-3--0-3-------
A|-----------------0-3---
E|-----------------------

G|--------------5--2-----
D|------0-3-0-3----------
A|--0-3------------------
E|-----------------------

G|-----------------------
D|--0-3-5-7-3--0-3-------
A|-----------------0-3---
E|-----------------------


G|--5-3-0--5-3-0--5-------
D|------------------3-----
A|------------------------
E|------------------------

Thats it just play it in that order

I have too much spare time
Please rate this (probably 1 star)
Show more