-----------------------------------------------------------------
Cannon Fodder (Amiga) - Recruits
-----------------------------------------------------------------

Tabbed By :Dduckster
e-mail:Dduckster@hotmail.com
website: www.dduckster.co.uk

Tuning:Standard

of course you can play it on guitar or up an octave on the bass :o)

Main line:
(a)
G|---------------7----------|
D|-7--7-7-9-10----10-7------|
A|---------------------------|
E|---------------------------|

(b)
G|-9-9-9-9--7-5--4-5--7-5--4-5-4---------|
D|-------------------------------7-5-----|
A|---------------------------------------|
E|---------------------------------------|

(c)
G|----------------------------------------|
D|-10-10-9---9-7-7-5---7-10-9-7-7---------|
A|----------------------------------------|
E|----------------------------------------|

(i)
G|----------------------------------------|
D|-9-9-9-9-9-9-10---9-7---9-10--9-7-7-----|
A|----------------------------------------|
E|----------------------------------------|

G|----------------------------------------|
D|-9-9-9-9-9-9-10---9-10---9-10--9-7-7----|
A|----------------------------------------|
E|----------------------------------------|

G|-9-7-9-7-9-7-9---7----------------------|
D|-------------------10---9-10---9-7-7----|
A|----------------------------------------|
E|----------------------------------------|

(a)x1
(b)x1
(a)x1
(b)x1
(c)x1
(i)x1
(c)x1
Restart

Bass line:
(a)
G|-------------------------------------------------------------------|
D|----------5-7------------1-3---------------------------------1-3---|
A|--------7--------------3---------3-5-5---3-5-5-5--5-3------3-------|
E|(3)-5-5------5-5--01-1------1-1--------5---------------1-1------1-1|
      * *      * *   * *      * *    * *       * *       * *      * *

(b)
G|---------------------------------------------------------|
D|---------------------------------------------------------|
A|---------------------------------------------------------|
E|-8-8---7-7---5-5--3--353-5-5--5-5------------------------|
                           * *  * *

(i)
G|---------------------------------------------------------|
D|---------------------------------------------------------|
A|--------------------------------------------------3-2----|
E|-3-3--3-3-353--5-5---5-5---3-3--3-3-353-5-5--5-5------5--|
   * *  * *      * *   * *   * *  * *     * *  * *
G|---------------------------------------------------------|
D|---------------------------------------------------------|
A|---------------------------------------------------------|
E|-3-3--3-3-353-5-5--5-5-----------------------------------|
   * *  * *     * *  * *             

(a)x2
(b)x1
(i)x1
(b)x1
Restart


| * short note
| / slide up
|  slide down
| h hammer-on
| p pull-off
| ~ vibrato
| + harmonic
| x Mute note
Show more