This the part of the theme song when the guitar comes in and the camera is surfing around the city.

I think this is how many times he does each of these notes.

G||-----------------------------------------------------------------|
D||-----------------------------------------------------------------|
A||---------------------------------3-3-3-3-3-3-3-3-3-3-3-3-3-3-3-3-| X2
E||-3-3-3-3-3-3-3-3-3-3-3-3-3-3-3-3---------------------------------|

listen for timing on this part.
|---------------------------|
|---------------------------|
|-7--7-7-7-7-3--3-3-3-3-3-3-| X2
|---------------------------|

|-------------------------------------------------------------------||
|-------------------------------------------------------------------||
|---------------------------------3-3-3-3-3-3-3-3-3-3-3-3-3-3-3-3---||
|-3-3-3-3-3-3-3-3-3-3-3-3-3-3-3-3---------------------------------3-||
Show more