Intro

|---------------21--------------23--------
|-----2--------2--------2------2----------
|--023------023------023----023-----------
|-----------------------------------------

Main Riff

|----------------21-----------------------
|----2-1-0------2----------2-1-03---------
|-023-3-2-3--023--------023-3-2-----------
|----------------------------------51----

Interlude/Chorus

|-----------------------------------------
|-----------------------------------------
|---------------------------777-----------
|-555-55555--333-33333--9876--------------

Main Riff x1
Show more