G|----0-------------0-------0---0--4--2-0--------------------
D|-0-----0-------0---0---0---0------------4-2-1--------------
A|-----------0-0---------------------------------------------
E|-----------------------------------------------------------

G|----0-------------0-----0-------------------------------------
D|-0-----0------0-----0-----2-0---------------------------------
A|----------0-0--------------------3-2-0------------------------
E|------------------------------------------3-------------------

This is 100% correct.  This is also my first tab.  Please rate.

<<~the original masturbasser<<~
Show more