verse

E------5--5---3--3--3--3---
A-5--5---7--7--5--5--5--5--
D--7--7--------------------
G--------------------------

E-------5--5--2--2--3--3-
A-5--5---7--7--4--4--5--5
D--7--7------------------
G------------------------

Chorus
E-----55---0-0-22
A--55------------
D----------------
G----------------
Show more