Pirates Of The Caribbean
The Black Pearl


I just want to point out that this is the melody line for the song. 
It is not the bass part .So if you try playing with the music this 
tab will follow the melody line such as the flutes and such.


G|-----------------------------------------------------------|
D|-----------------------------------------------------------|
A|-8----|-10-8-6|-8--|-10-11-13|-13--|-11-10-8|-10-8-6|-8----|
E|----------------------------------------------------|---3-6|
   1 2 3  1  2 3  1    1  2  3   1     1  2  3  1  2 3 1  2 3 


G|----------------------------------------------------|
D|----------------------------------------------------|
A|----------------------------------------------------|
E|-10---|-11---|-10-10-10|-10-8--|-8----|-6----|-5-6-5|
   1 2 3  1 2 3  1  2  3   1 an    1 2 3  1 2 3  1 2 3



G|-------------------------------------------------------------------------|
D|-------------------------------------------------------------------------|
A|-------------------------------------------------------------------------|
E|-3-3-6|-10---|-11---|-10-10-10|-10-8-|- measures of rest in 3/4 measures-|
   1 2 3  1 2 3  1 2 3  1  2  3   1 an    

G|---------------------------------------------|
d|---------------------------------------------|
A|------------------------|-4----|-3-3-6|-8----|
E|-3-5-6|-10-12-14|-15----|--------------------|
   1 2 3  1  2   3  1 2 3   1 2 3  1 2 3  1 2 3

If you follow the countings I put, everything will sound the way it should 
if you play the right notes. I am 99.9% sure it is correct.
Show more