This is a very simple tab to play!!!

Intro
G-------------------------
D-------2-0-2-------0h2---  X2
A--------------0h2--------
E--0-0--------------------

G-------------------------2---
D-------2-0-2-------0h2------- 
A--------------0h2------------
E--0-0------------------------

G--------2-0-2-------0h2------
D---------------0h2----------- X2
A---0-0-----------------------
E-----------------------------

You just repeat this process over and over till the song is done!!!! =====))~~~ LATER!!!!!
Show more