Tabbed by: The XcrazyXbassistX

g|-8-6-4-44-6-8--------88-6-44-|X1
d|--------------6-6-44---------|
a|-----------------------------|
e|-----------------------------|

g|-8-6-4-44-6-8-9------88-6-4-|
a|----------------6-44--------|
a|----------------------------|
e|----------------------------|

this is actually the guitar part if u have the B string but since u dont, ive transferred it to bass

email for comments: iceous52@hotmail.com
Show more