Summer nights/days 
w/e that greace song is
Tabbed by Dennis B.(Dennhead2827)
any questions email me at rocker2827@hotmail.com.
I should have sheet music for it to correct my work by next week

First riff

G-----1--1-3-31-31--
D-1-1-----------------1
A-----------------------
E-----------------------


Second part

G-----1-3-5-------------33------01-------------
D-1-1----------0-23-3------13-----------0---23
A-------------3-------------------------13--------
E--------------------------------------------------
(few may be wrong but i have no music to listen to right now so dont blame me)
not hard to figure out

Third part
G------3333
D-1-1-----
A-----------
E-----------
(dif variations should b able to figure out)
Show more