Super Mario Bros. Theme
Tabbed by atom_middleman

This is the bass part to the Super Mario Bros. theme, not the actual melody
-3-=Triplet
T=Ten
W=Twelve

Intro
G|--------W---0---|
D|00-0-00---------|
A|----------------|
E|----------------|

Riff 1
G|0---------------|--9-T--79-----0-|
D|---2-----3-5-43-|-T--------T-79--|
A|------3---------|7---------------|
E|----------------|----------------|
                   -3-

Riff 2
G|---0--5----555--|------05------0-|---0--5----555--|--1--3--5--00---|
D|--------3-----3-|---2------------|--------3-----3-|----------------|
A|3---------------|3---------------|3---------------|3-------------3-|
E|----------------|----------------|----------------|----------------|

Riff 3
G|------1-0-------|
D|---1------------|
A|-----------3----|
E|4-------------3-|

Riff 4
G|------5-----55--|------4-0-0-550-|------5-----55--|0--0024-5-0-----|
D|---45---3-3---3-|0--35-----------|---45---3-3---3-|----------------|
A|3---------------|----------------|3---------------|------------3---|
E|----------------|----------------|----------------|----------------|
                                                         -3-

Ending (Game Over)
G|0---------------|----------------|
D|---2----3-------|----------------|
A|------3-----4---|3---------------|
E|----------------|----------------|

Order:
Intro x1
Riff 1 x2
Riff 2 x2
Riff 3 x3
Intro x1
Riff 1 x2
Riff 4 x2
Riff 3 x3
Intro x1
Riff 4 x1
Ending x1

The rhythms can get kind of weird, so listen to the song and COUNT (1e&a, 2e&a, etc.)!
Show more