Trigun
Vash's Theme
Tabbed by Speedy

Key
h = hammer on
p = pull off
! = let note ring
X = play note softly
T = slap


Intro
G|---------------------------------|
D|---------------------------------|
A|---------------------------------|
E|-0-0h5--7---0-0h5--7---0h5--7--0-|
   T T    T   T T    T   T    T  T

Main Riff
G|-----------------------------------|
D|-----------------------------------|
A|-----------------------------------|
E|-0-0h5--7---0-0h5--7---0-0h5--7--0-|
   T T    T   T T    T   T T    T  T

Chorus
G|-----------------------5--5--5--5--5h6h7h8----------------------------------------------------------|
D|-7--7--7--7--7h8h9h10-----------------------7--7--7--7--7h8h9h10-10p9p8p7-7h8h9--9--9--9--9--9p8p7--|
A|----------------------------------------------------------------------------------------------------|
E|----------------------------------------------------------------------------------------------------|

G|-----------------------5--5--5--5--5h6h7h8--------------------------------------|
D|-7--7--7--7--7h8h9h10-----------------------7--7--7--7--7h8h9h10-10p9p8p7--0!!!!|
A|--------------------------------------------------------------------------------|
E|--------------------------------------------------------------------------------|
                                                                             X 

listen to the song for the order
Show more