song:-"Yu-gi-oh"

artist:-theme

Album:- N/A


Riff 1

G|--------------------------------------------------------------------------|
D|--------------------------------------------------------------------------|
A|--------------------------------------------------------------------------|
E|-------------------------------------2-2--3-3--3-3--5-5--3-3--0-0--0-0--0-|
B|--0-0--0-0--3-3--2-2--5-5--5-5--5-5---------------------------------------|


solo

G|--------------------------------------------------------------------------|
D|--------------------------------------------------------------------------|
A|--------------------5-55-5------------------------------5-55-5------------|
E|--3/5-5-5--7-8-7--7--------7-8-7-8-7--3/5-5-5--7-8-7--7--------7-8-7-8-7--|
B|--------------------------------------------------------------------------|

Tabbed by Ryan McEarle
Show more