WES CRAVEN`S A Nightmare on Elmstreet - Theme
Tuning: Standard

E|-11-----8-----11-11-11-11-8-----|
B|-11-----8-----11-11-11-11-8-----|
G|-11-----8-----11-11-11-11-8-----|
D|--------------------------------|
A|--------------------------------|
E|--------------------------------|

E|-12-----9-----12-12-12-12-9-----|
B|-12-----9-----11-12-12-12-9-----|
G|-12-----9-----11-12-12-12-9-----|
D|--------------------------------|
A|--------------------------------|
E|--------------------------------|
Show more