this is the theme to the show angel
here i but it in Eminor because it is easy to play the cello part on a key board as well
transpose if you think a diffrent key is more appropriate how ever the Emin chord works terrific 

first two parts are 100% correct

e:|--------------------------------------------------------------------------|
B:|--------------------------------------------------------------------------| 
G:|--------------------------------------------------------------------------| 
D:|-----------12-------------------------------------------------------------| 
A:|---------------15-14--12--------------------------------------------------|
E:|--12-14-15---------------15-14-12--14-15-8--------------------------------|


e:|--------------------------------------------------------------------------| 
B:|--------------------------------------------------------------------------| 
G:|--------------------------------------------------------------------------| 
D:|-----------12---------16-17-----------------------------------------------| 
A:|---------------15-14--------15-15-14--------------------------------------|
E:|--12-14-15----------------------------------------------------------------|

this part im not as sure of however but its close
e:|--------------------------------------------------------------------------| 
B:|--------------------------------------------------------------------------| 
G:|--------------------------------------------------------------------------| 
D:|--2----4--2--4-2-4-5----2---4-2-4-2-4-5-0---------------------------------| 
A:|--2--2------------------2-2-----------------------------------------------|
E:|--0---------------------0-------------------------------------------------|
Show more