this is an awsome song me and my friends made up we thought it was cool


standard tuning

b=bend
p=pulloff
h=hammeron




                 --------------------------------------------------------------------------
                 ---------------------5-----------------5----------------------------------
                 --------5h7p5---7b---------5h7p5---7b-----7--5----------5b----------------
                 ----7--------------------7-----------------------7-5-----------------------                      --------------------------------------5-----------------------------
                 -------------------------------------------------------------------------


                  -----------------------------------------------------------------------
                  -------------------8b------------------------------------------------
                  ------5--5---7-5--------7---5--------------------------------------
                  ---7----------------------------------5-5-----5-5----7---------------
                  -----------------------------------7--------7------------------------
                  ---------------------------------------------------------------------
Show more