This tab only uses three strings

D|-------------------------------------------|
A|------5-5-4-4-3-3-4-4-5-5-4-4-3-3-4--------|
E|------3-3-3-3-3-3-3-3-3-3-3-3-3-3-3--------|

D|------5-5-4-4-3-3-4-4-5-5-4-4-3-3-4--------|
A|------3-3-3-3-3-3-3-3-3-3-3-3-3-3-3--------|
E|-------------------------------------------|

D|-------------------------------------------|
A|------5-5-4-4-3-3-4-4-5-5-4-4-3-3-4--------|
E|------3-3-3-3-3-3-3-3-3-3-3-3-3-3-3--------|

D|------7-7-6-6-5-5-6-6-7-7-6-6-5-5-6--------|
A|------5-5-5-5-5-5-5-5-5-5-5-5-5-5-5--------|
E|-------------------------------------------|

D|-------------------------------------------|
A|------5-5-4-4-3-3-4-4-5-5-4-4-3-3-4--------|
E|------3-3-3-3-3-3-3-3-3-3-3-3-3-3-3--------|

D|------7-7-5-5------------------------------|
A|------5-5-3-3-5-5--------------------------|
E|--------------3-3--------------------------|

Play as many times as necessary
Show more